PrimaNota.ru - самый крупный в мире бесплатный архив песенных текстов, аккордов, табулатур и нот


Queen - These Are The Days Of Our Live - таба, видео

Регистрация Запомнить меня
Войти через:  Facebook Google Twitter Vk Yandex Mail.ru

Queen - These Are The Days Of Our Live - таба, видео

Печатать
Просмотров: 231
These are the days of our live (Queen)

|-----------------------------------5/6------------------------------------------|
|----------------------------------------5------------3--1---------------1-------|
|--5----5--5--5--5---------------------------5--4-----------2------------2-------|
|-----------------------5---5--5--------------------------------5--3--2--2-------|
|--------------------------------------------------------------------------------|
|--------------------------------------------------------------------------------|

|--------------------------------------------------------------------------------|
|-10--8---5-----------------------0--1--3------1----3--1------6--3--1------------|
|------------9--5--7--5--------0--------------------4--2----5----4--2------------|
|-------------------------0--2----0--2--3----3---5--------5----------------------|
|--------------------------------------------------------------------------------|
|--------------------------------------------------------------------------------|

|--------------------------------------------------------------------------------|
|--------------------------------------------------------------------------------|
|--5/7-5/7-5/7---5-------------5—5/7/5-------------------------------------------|
|--------------------5--5--7--------------3--5-----------------------------------|
|------------------------------------------------7/5—-3--5--3--------------------|
|--------------------------------------------------------------------------------|
  ^^ ^^ ^^ ^^ ^^ ^^ ^^    |                 ~~~~~~~~~~~
|------------------------------------------15------------------------------------|
|-15-15-15-15-15-15-15----15-------------------------------------6---------------|
|-----------------------------15/13---------------------4~~~~5---4---------------|
|-----------------------------------14/12----------------------------------------|
|--------------------------------------------------------------------------------|
|--------------------------------------------------------------------------------|

|--------------------------------------------------------------------------------|
|-6---5--------------5---3--------------------------0-----------0--1--3----------|
|-------7---5---------------5---4---2---5/4-------------0-------0--0--0----------|
|---------------7----------------------------7--5-----------0---0--2--3----------|
|--------------------------------------------------------------------------------|
|--------------------------------------------------------------------------------|

|----------------------------------------------------------5---------------------|
|-5--6--3--5------1----5--6--3--5------------------------------------------------|
|-5--7--4--5-----------5--7--4--5---------2-----3----5--5--5---------------------|
|-5--5—-5--5---3----5--5--5--5--5---3--3--3--------------------------------------|
|-----------------------------------------3--------------------------------------|
|-----------------------------------------1--------------------------------------|
 Guitarsolo :
|-----------------------------------------------------------3--------------------|
|--8/10--8--6--5--3----3--5----6--5---6/8--6--5--6--3----5-----0--7--9--10--7----|
|--------------------------------------------------------------------------------|
|--------------------------------------------------------------------------------|
|--------------------------------------------------------------------------------|
|--------------------------------------------------------------------------------|

|--------------------------------------------------------------------------------|
|--9/7/5------14--12--15--14----12--12--12---------------------------------------|
|--------------------------------------------------------------------------------|
|--------------------------------------------------------------------------------|
|--------------------------------------------------------------------------------|
|--------------------------------------------------------------------------------|

|-----12/14------13----10---10---------------------------------------------------|
|--10~~~~-----------13----13--10----10-------------------------------------------|
|--------------------------------12---12-10--9-10-9------------------------------|
|-----------------------------------------------------12-10--12--14---14!--------|
|--------------------------------------------------------------------------------|
|--------------------------------------------------------------------------------|

|------14/16----14---12---12-----------------------------------------------------|
|--12------------------15-----15--12------12-------------------------------------|
|-------------------------------------14------14--12--11--12--11-----------------|
|-----------------------------------------------------------------14--12---------|
|--------------------------------------------------------------------------------|
|--------------------------------------------------------------------------------|

|--------------------------------------------------------------------------------|
|--15----15--17--15-----13--12---------------------------------------------------|
|---------------------------------14--12-----14--16------------------------------|
|--------------------------------------------------------------------------------|
|--------------------------------------------------------------------------------|
|--------------------------------------------------------------------------------|


|---------------------------------------------------15----------15/17~~~~~-------|
|--------------------------15/15/15--13--12--13----------------------------------|
|-12-12-12-12-12-12-12-12--------------------------------------------------------|
|--------------------------------------------------------------------------------|
|--------------------------------------------------------------------------------|
|--------------------------------------------------------------------------------|

|---------------15--13--12-------------------------------------------------------|
|----------------------------15--13--12--13--15--13------------------------------|
|---------2-----------------------------------------------2----------------------|
|--3--3---3-----------------------------------------3--3--3----------------------|
|---------3-----------------------------------------------3----------------------|
|---------1-----------------------------------------------1----------------------|

|---------------20--19--17-------------------------------------------------------|
|---22--20--18--------------20--18--17-------------------------------------------|
|--------------------------------------19--17------17--19--17--------------------|
|----------------------------------------------21--------------------------------|
|--------------------------------------------------------------------------------|
|--------------------------------------------------------------------------------|

|-------------------------11--8--------------------------------------------------|
|-------15/17--13---------------11--8--------------------------------------------|
|--12---------------------------------11--10--8----------------------------------|
|-----------------------------------------------10--8----------------------------|
|------------------------------------------------------10--8--9--7---------------|
|--------------------------------------------------------------------------------|

|--------------------------------------------------------------------------------|
|--------------------------------------------------------------------------------|
|-------5/7--8--5----------------------------------------------------------------|
|--3/7---------------------------------------------------------------------------|
|--------------------------------------------------------------------------------|
|--------------------------------------------------------------------------------|

If there is anythinq for submit write please Frodo06-Julian@web.de

Rock On !!!






Добавлено: 26.06.2012
Другие материалы по этой песне:
  • Аккорды и текст

Страница создана 26.06.2012
http://primanota.ru/queen/these-are-the-days-of-our-live-chords.htm
Привет, Гость.
Предлагаем пройти революционный курс по гитаре.
Подарок от PrimaNota.Ru, забирай!