PrimaNota.ru - самый крупный в мире бесплатный архив песенных текстов, аккордов, табулатур и нот


Queen - Sheer Heart Attack Album - таба, видео

Регистрация Запомнить меня
Войти через:  Facebook Google Twitter Vk Yandex Mail.ru

Queen - Sheer Heart Attack Album - таба, видео

Печатать
Просмотров: 206
Уроки эстрадного вокала в Санкт-Петербурге
Queen - Queen II
	----------------
This is the complete tab of Sheer Heart Attack (One 
of the best, if not the
best Queen album). As always, I mentioned the tabs 
the tabs that weren't my
own (There are even people other then Pinter 
Denes!), the rest are my own 
interpetation (and it's not always that good). For 
comments, correction,
etc. e-mail me at: yshkedy@ort.org.il

	Yotam "Kurgan" Shkedy

Brighton Rock
-------------
Solos transcribed by Pinter Denes

Intro: C# F# x4 (9th fret)

Verse: 
B E x3 F# (B and E 7th fret, F# 9th fret)
B E x3 F#
1,2:A     E B C#m G# C#m B E
C# F x2
3: A  B  E (The E is muted)

Chorus:
C#m E A B E
C#m F#m B7 A

Solo: 
A A A E x2
A A A G

1'47"
|----------------------------------|
|----------------------------------|
|-2b4_r2p0-2p0---------------------|
|--------------2p0-2p0---------2---|
|----------------------2p0-----2---|
|--------------------------3b4-0---|

1'53" ,2'00"
|---------12------------------12-----------------------------------------|
|-15b17------15p12-15---12-------------------------12b-------------------|
|--------------------------15----15p14p12-14p12----12b-------------------|
|-----------------------------------------------14--------14p12----12b---|
|---------------------------------------------------------------14-------|
|------------------------------------------------------------------------|

|-------------------|
|-------------------|
|-------------------|
|-------------------|
|-14-13--12--10-----|
|---------------12--|

2'38"
|--------------------------------------------------------------|
|--------------------------------------------------------------|
|------------9-99----9-9---------------------------------------|
|------------7-779---7-7---------------------------------------|
|------------0-007---0-0---------------------------------------|
|-0\\tr//0-------0-------0-000-0000000-0000000-0000000-0000000-|

|---------------------------|
|---------------------------|
|---------------------------|
|----------------------5b---|
|-------------5-55555h7---5-|
|-000x00003/7---------------|

|-----------------------------------------------------|
|-----------------------------------------------------|
|-----------------------------------------------------|
|-------------5---------------b6----57p5------7p5-----|
|-----5-5-5557--7-----5-5-5557---7-7----7-7-7----7-7--|
|-057-------------5557--------------------------------|

|----------------------------------------------------------------------|
|------------------------(12b)-----------------------------------------|
|-------------------------12b----------------------------12b-----------|
|-----------12-1212121214-----14-1414-----12-12121212h14-----14--1414--|
|-12h1412h14-------------------------12p14-----------------------------|
|----------------------------------------------------------------------|

|--------------------------------------|
|--------------------------------------|
|--------------------12b-12b-121212b14-|
|------12-1212121214-------------------|
|-12h14--------------------------------|
|--------------------------------------|

|-------------------------------------------------------------------------|
|-------12-------12------(12)------12-------12----14----12----14----12----|
|-------12-12----12-------12-------12-------12----14----12-14----12-12-14-|
|-14-14-------14----14-14----14-14----14-14----14----------14----12----14-|
|----------------------------------------------------12-------------------|
|-------------------------------------------------------------------------|

|-----------------------------------------------------------------|
|-14----12b-------------------------------------------------------|
|-------12b-------------------------------------------------------|
|----14-----1412---12---------------------------------------------|
|----12---------14----14-12-10-12-10-1210---10--------------------|
|----------------------------------------12----12-10-9-8-7-6-5-3--|

|----------------------------------------------------------------------|
|----------------------------------------------------------------------|
|----------------------------------------------------------------------|
|-------------------------------------------~~~~tr~~~~-----------------|
|------------------7------------------------7---7---7-----------////-2-|
|-0-00000-00000000-5--3b-p0-0-000-000-0000005---5---5--5\tr\\---////-0-|

echo on
|--------------------------------------------------------|
|--------------------------------------------------------|
|--------------------------------------------------------|
|--------------------------------------------5555777-999-|
|------------------------------------5555777-------------|
|-0000-----00000-----000033335555777---------------------|

|---------------------------------------1212-----------------------------|
|------------------------12121212151515-----121515b17-b17-b17-b17-b17vv--|
|-7777999912121212141414-------------------------------------------------|
|------------------------------------------------------------------------|
|------------------------------------------------------------------------|
|------------------------------------------------------------------------|

|------------------------------------------------------|
|-b17_r15p1215-12--------------------------------------|
|-----------------15p14p12-14p12---12------------------|
|-------------------------------14----14p12------------|
|------------------------------------------14-13-12-10-|
|------------------------------------------------------|

|-------------|-------------|----|
|-------------|-------------|----|
|-------------|-------------|-0/-|
|-------------|-------------|-/0-|
|-------------|-10----------|----|
|-12-12-10-12-|----12-10-12-| 5x |

|-----------------------------------------------------------|
|-----------------------------------------------------------|
|-----------------------------------------------------------|
|-----------------------------------------------------------|
|-----------------------------------------------------------|
|-10-12-10-12-10-12-9-12-9-12-9-12-9-12-8-12-8-12-8-12-8-12-|

|-------------------------------------------------------------|
|-------------------------------------------------------------|
|-------------------------------------------------------------|
|-------------------------------------------------------------|
|-------------------------------------------------------------|
|-7-12-7-12-7-12-7-12-6-7-6-7-6-7-6-7-6-7-6-7-6-7-6-7-6vvv----|

|----------------------------------------------------------|
|------x(0)-15b17---15p12----------------------------------|
|------xxx---------------15p14p12-----------------------9--|
|--------------------------------14p12------------------9--|
|-------------------------------------14131210----------7--|
|-    5  3  0-------------------------------------12p10-----0--|

|-17b19---1715---12-------------------------------------------------------|
|------------------15---12--------------------------------------------3---|
|-------------------------14---12-------------------------------------2---|
|--------------------------------14---12------------------------------0---|
|---------------------------------------14---1210--------------------x----|
|---------------------------------------------------1210---75---30---x----|

|------------------------------------------------------|
|------------------------------------------------------|
|------------------------------------------------------|
|-------------5------------------5----------------5-5/-|
|----*-5-555h7--7-77---5-55555h7---7-77775-5-555h7-----|
|-5h7---------------5h7--------------------------------|

|------------------------------------------------------|
|----------------------------------------------12-1212-|
|--------------------12-12----------------x-14---------|
|-----12-12121212h14-------1412-----12-12--x-----------|
|-12---------------------------12h14-------------------|
|---14-------------------------------------------------|

|-----------------------------------------------------------------------|
|-----------------------------------------------------------------------|
|-------------------------12--------------------------------12----------|
|-12-----------12h14p12h14---14-12-12------------12h14p12h14---14-12-12-|
|---12h14p12h14-----------------------12h14p12h14-----------------------|
|-----------------------------------------------------------------------|

|-----------------------------------------------------------------------|
|-----------------------------------12-------12-------12-------12-------|
|-----------------------12----------12-------12(12)---12-------12(12)---|
|------------12h14p12h14---14-14-14----14-14----14-14----14-14----14-14-|
|-12h14p12h14-----------------------------------------------------------|
|-----------------------------------------------------------------------|

|-----------------|
|-15------15------|
|-14b16---14b16...|
|-----------------|
|-----------------|
|-----------------|

4'29"
|------------------------------------------------|
|------------------------------------------------|
|-11b13vv---11b13_r11p9vv------------9b----------|
|---------------------------1111p9------111111---|
|---------------------------------11-------------|
|------------------------------------------------|

|-------9--------9-----------------------------|
|-12b14---12p9---------------------------------|
|-------------12---12p11p911p9-----------------|
|-----------------------------11p9-------------|
|---------------------------------1110979p7----|
|------------------------------------------9---|

4'58"
|-------------------------|----|---------------------------------------|
|-------------------------|----|---------------------------------------|
|----0--------------------|-0/-|-0/--------2b3r2p0-----------------7---|
|-0h2-2p0-----0-----2-----|-/0-|-/0---------------20---------------6---|
|--------2-0h2-2p0--0-----|----|--------------------210------------7---|
|-----------------30----3-|----|----..3p0--------------300000000h5-0---|

Killer Queen
------------
Tab by Pinter Denes

Verse:
Cm Bb
Cm Bb Eb
Eb Bb Eb7 Ab
Abm Eb Bb11(x11111)
G Cm Bb Eb
D7 Gm (F7)

Chorus:
Bb Dm Gm Dm
Gm    A Dm
G C Bb
1st and 3rd chorus continue:
A7 Dm G Cm 
1st Chorus:
C Bb F

12"/left/riff A
|------------------------------------------------------|
|------------------------------------------------------|
|-8--8--7--7--\6--6--\5--5--\4--4--\3--3--3--3-\1------|
|---------------------------------------------------x--|
|------------------------------------------------1-----|
|------------------------------------------------------|

38"/left/riff B ---bluff---
|----5----------------------------------|
|----5------6---------------------------|
|----6------7-----4-------9--------7-\--|
|-7--7------7-----5------10--------8-\--|
|-7------5--------5------10----10--8-\3-|
|-5-----5------3-----38---------8--6-\1-|

 44"/middle/three guitars arranged for one
|-------------------13-10-13b15------------------|
|-------------------15-15-15b16------------------|
|----10b12-10b12-------------------10b12-10b12---|
|----12b13-12b13----12-12-12b13----12b13-12b13---|
|----13----13----------------------13----13------|
|-1--1-----1-------------------------------------|

56"/left and right guitars   1'26/left
|-------------------------|------------------------------------------------
|------------------left:  |------------6------------6-----3----4-----3-----
|----right---------riff A-|-----6------7-----6------7-----4----5-----4-5\--
|----10b12-8-10----8------|-----7------7-----7------7-----5----5-----5---33
|both-----------10--------|-----7---5--------7---5--------5--3-------5-----
|-8-----------------------|1/5-----5------5-----5------3----------3--------

1'26"/middle
|-------------------------------5--6----5-----------------3------------|
|-8b10---b10--b10v--8--6-5-----------8----6-5-----b8-r-6----4p3--------|
|--------------------------7v-----------------7-----------------5v-(0)-|
|----------------------------------------------------------------------|
|----------------------------------------------------------------------|
|----------------------------------------------------------------------|

|-3--------------------------------|
|---4-6-3-4-3----------------------|
|-------------5\2------------------|
|-----------------3-3---3-3---3-h3-|
|----------------------------------|
|----------------------------------|

1'35"/middle/three guitars
|--------------------------------------------|
|--------------------------------------------|
|-10b12-10b12---10b12-10b12---12-13-14/17----|
|-12b13-12b13---12b13-12b13---13-14-15-17b19-|
|-13----13------13----13------13-14-15/20----|
|--------------------------------------------|

solo/middle
|------------------------13---13-10h11p10-------------------------------|
|-13---13--11-13r11-----------------------13------13---13-r12--13r11----|
|-------------------12-------------------------12--------------------12-|
|-----------------------------------------------------------------------|
|-----------------------------------------------------------------------|
|-----------------------------------------------------------------------|

|--------------------------------------------------------------15-----|
|---x15---15-12-13p12-15p13-16p15-18p16-18b20---r18---16---18-----16--|
|--x------------------------------------------------------------------|
|-x-------------------------------------------------------------------|
|---------------------------------------------------------------------|
|---------------------------------------------------------------------|

|-------------------------------------------------------|
|-20r18--p16------18--------------16-18b20--b20-20r18---|
|------------16-------16\15---17------------------------|
|-------------------------------------------------------|
|-------------------------------------------------------|
|-------------------------------------------------------|

|--------18---------------------|
|--18r20----b20---b20--b20r21vv-|
|-------------------------------|
|-------------------------------|
|-------------------------------|
|-------------------------------|

1'49"/right guitar
|------------------------------------------------------------------|
|-16--15------14---16-13------14---------------------14b15--b15--14|
|---------15----------------------12-11--11-12--14-----------------|
|------------------------------------------------------------------|
|------------------------------------------------------------------|
|-----------------------(0h1)--------------------------------------|

|-------14---------------------|
|-14b15----b15--b15--b15b16vv--|
|------------------------------|
|------------------------------|
|------------------------------|
|------------------------------|

1'49"/left guitar
|-------------------------------------------------------------------------|
|-----------13-------13-------------12-15--15--15---------16---------13/15|
|15--15--15-----13-------13-13--13------------------14/15----15--15-------|
|-------------------------------------------------------------------------|
|-------------------------------------------------------------------------|
|-------------------------------------------------------------------------|

2'1"/right guitar: G Cm G Cm A# D# A# D# D

2'04"/three guitars/wah-wah
|-------------|
|-------------|
|-17-15-------|
|-17-15-17----|
|-18-17-18&15-|
|-------------|

2'13"/left fading to right
|----------------|-----------------|
|----------------|-----------------|
|-10-8-----------|-----------------|
|------10-8-7----|-3-1-------------|
|-------------8--|-----3-1-0-------|
|----------------|-----------1-----|

(2'17-2'25": the multitrack guitar solo is not presented here)

2'28"/left guitar :  riff B

2'35"
|------------------------|-14b16-b16...|
|------------------------|-15b16-b16...|
|-10b12---10b12-10b12----|-14b16-b16...|
|-12b13---12b13-12b13----|-------------|
|-12b13---12b13-12b13----|-------------|
|------------------------|-------------|

  left     right
|-20r18-15---------...|
|----------20r18-16...|
|------------------...|
|------------------...|
|------------------...|
|------------------...|

Tenement Funster
----------------
First verse tab by Sergey Shulubin (freddie@nirvana.infopro.spb.su)
The first verse is arrpegioed, the rest just strum along.

Verse:
Em Am Em Am Em G G7 C Eb D (Dmaj7 D7)

|-----0---------0---------0---------0---------0-----
|----0-0-------1-1-------0-0-------1-1-------0-0----
|---0---0-----2---2-----0---0-----2---2-----0---0---
|--2-----2---2-----2---2-----2---2-----2---2-----0--
|-----------0-------------------0-------------------
|-0-------------------0-------------------0---------

|-----3---------1---------0---------3---------------
|----0-0-------0-0-------1-1-------4-4--------------
|---0---0-----0---0-----0---0-----3---3-------------
|--0-----0---0-----0---2-----2---5-----5------------
|---------------------3---------6-------------------
|-3---------3---------------------------------------

|-----2---------2---------2-------2-2-2-2-----------
|----3-3-------2-2-------1-1------1-1-1-1-----------
|---2---2-----2---2-----2---2-----2-2-2-2-----------
|--4-----4---4-----4---4-----0----0-0-0-0-----------
|-5---------4---------3-----------0-0-0-0-----------
|---------------------------------------------------

Chorus:
Em A Em A Em G C7 Eb D7

Solo: The solo is heavly echoed, so it is not so accrate.
Correction Welcomed.
 1:26
e-----------------------------------------------------------------------
B-(10)b12-12-12r10-8--------------------/21-21~-21p19h21p19-19p16h19p16-
G--------------------9/11--11p9-----------------------------------------
D-------------------------------12p11-9---------------------------------
A-----------------------------------------------------------------------
E-----------------------------------------------------------------------

e----------------------------------------------------------------21b-
B--------------------------------19b20-21b--19-----------------------
G-20p19h20p19-19p17h19p17----------------------20-21p20h21p20h21-----
D-------------------------19--19-------------------------------------
A--------------------------------------------------------------------
E--------------------------------------------------------------------

e-21b22-19--------------------------------------------
B----------21-19--19p17-------------------------------
G-----------------------19p17h19h21p17----------------
D--------------------------------------21-19-17-------
A-----------------------------------------------19-17-
E-----------------------------------------------------

 1:52		1:58		  2:29		
e-------------|			 |-------------|
B-19~---------|			 |-8b9---------|
G-----19~-----|			 |-----9-7-7h9-|
D---------21~-|G5/A5 A5 A5  A5 X2|-------------|
A-------------|			 |-------------|
E-------------|			 |-------------|

Flick Of The Wrist
------------------
I will start by apologising for the poor accuracy of this tab.
Most of the riffs (especially in the middle of the verses) sound like
a bunch of notes rolling one of the other, which makes this very hard
to transcribe. The transcription here sound (to me)
good, but is not 100% (or even 90%) accurate.

 0:11
e---------------15-----------------------------------
B-13~-15b16-13~----16-13-----------------------------
G--------------------------7/9-7---------------------
D--------------------------------9p7\5-5h7p5-------7-
A--------------------------------------------7p5---7-
E------------------------------------------------7-5-

First half of verse: B

 0:31*
e----------------------------------------------------------
B------------------------------------7~---7---7-8-10--8-7~-
G-------------------7h8p7-8h9p8-9p8h9-------9--------------
D-9--10-9--9-7-9-10----------------------------------------
A----------------------------------------------------------
E----------------------------------------------------------
* All this riffs should be played with a slight tremolo and
a lot of hits and pulls to give it the rolling sound. A volume
pedal to fade into the song will also help with achiving the
right effect.

Em D Em D
Em D Am B7 (Em B7) - On the 3rd verse hold the D till the chorus.

Chorus (Flick of the wrist...):
Am D G7 C
Am
C   C#dim(x45353) D7   Em      Am
All this	  time honey...had
 1:19  
e---------------------------
B------------------5---5h7--
G-7\5\4--4h5h7-5h7---7------
D---------------------------
A---------------------------
E---------------------------
 1:30
e---------------------------------10--------------------
B-----------------------------7-8----8-7\\--------7-----There's a bit
G-----------7h8p7-8h9p8-9p8h9---------------7h8h9---9p8-more here but
D--9-7-9-10---------------------------------------------can't figure
A-------------------------------------------------------it out. Sorry
E-------------------------------------------------------

Solo:
 1:51 
e------------------19b--------------------------------------
B-17b19-19r17-15-------20--20-17----------------------20-20-
G--------------------------------19-16----16-19----19-------
D--------------------------------------19-------------------
A-----------------------------------------------------------
E-----------------------------------------------------------
 

e--------------------------------------------------------------------------
B--------------------------------------------------------------------------
G--------------------------------------------------------------------------
D-16b17-------16h19-19-19-19b21-17h19p17h19b21-19p17-----17-19p17--17-19b21
A-------17h19---------------------------------------19-17--------19--------
E--------------------------------------------------------------------------
 

e--------------------------------------------------17-----------------
B-------------17--17-15-17-15-17-15-17-15-17-19-20-----------------17-
G-19p16----16------------------------------------------19p16----16----
D-------19---------------------------------------------------19-------
A---------------------------------------------------------------------
E---------------------------------------------------------------------
 

e-------------------------------------17----------------
B-17-15b17r15b17r15b17r15----------------17p15-------17-
G-------------------------19p16----------------16p14----
D-------------------------------19-17-------------------
A-------------------------------------------------------
E-------------------------------------------------------
 

e-------------------------------------------17-15-14-14----------
B-17~-17~-15--19-19-19-19p17p15-----17~-17~-------------17p15----
G-------------------------------16----------------------------16-
D----------------------------------------------------------------
A----------------------------------------------------------------
E----------------------------------------------------------------

e---------------------------------------
B-17~-17~-15--17-17~--------------------
G--------------------14-----------------
D-----------------------12h14-----------
A-----------------------------12h14-10\-
E---------------------------------------
 2:36
e--------------7---------------5h7----------------------
B-------7h8-10---8p7-------7h8-----10-8-------7h8-7-----
G---8h9--------------9p8h9--------------8-8h9-------9-8-
D-9-----------------------------------------------------
A-------------------------------------------------------
E-------------------------------------------------------

Lily Of The Valley
------------------

Intro:
Am Dm x2 (With B-17 fading in at 0:01 for 2 seconds and abruptly stopping)
Am G x2

C G Am (/G)
Am Dm
Dm G 
C Dm G
C Dm G Am

Break:
Am Dm x2

Bridge (I lie in wait...):
Dm A7 C#dim Dm
C7 F
F C F C7
F    C    Dm C    G
each time I  grow old
C Dm G
C Dm G
C F G Am G

C G Am (/G)
Am Dm
Dm G 
C Dm G
C Dm G Am

Am Dm x2
Am G C
 1:24
e-----------------------------
B-----------------------------
G-----------------------------
D------------10----10-9-9-5-5-
A-7--------7------------------
E----5-7-8--------------------

Now I'm Here
------------
Main riff and outro by Pinter Denes

Intro:
D5 C5 C/B5 C/Bb5(1012xxxx;810xxxx;710xxxx;610xxxx)
D5 C5 C/B5  x2
I'm just...A D A D B E B(7) E(Over main riff)

Main riff
|----------------------------------------------5-5---|
|---------------3-3-------------9-9--9-109---7-5-5---|
|---------------2-2-------------9-9--9--99---7-6-6---|
|-----2--4-2----0-02--4-4-------9-9--9---9---7-7-7---|
|--------2-0----  c>0--2-2-----577-7777---7---5-7-7---|
|-0-34-0-----340---------2-567--0-0000---0-----5-5---|

Verse riff:
D------------------9-11-9--99-
A-9-11-9--99-11-9--7-7--7--77-
E-7-7--7--77-7--7-------------

Verse 1:
Verse riff D A
Verse riff B E
A D B E C# F# D# G# (Every couple of chords is on the same fret.
			e.g.: A&D on the 5th, B&E on the 7th, etc...
E	F# G
B E B(7) E(Over main riff)

Verse 2:
Verse riff D A
Verse riff A D
G C A D B E C# F#
D	E A

Solo: B  E A
 2:24
7-7-7-7------5-5-5-5----------------3/5-5-5-5-3/5-5-5-5-3/5-5-5-5-3/5-5-5-5
7-7-7-7-9----7-7-7-7-9-7--7-9-7-7-9-5/7-7-7-7-3/7-7-7-7-5/7-7-7-7-5/7-7-7-7
--------9-7----------9-7--7-9-7-7-9----------------------------------------
------------9--------9-7--7-9-7-7-9----------------------------------------
---------------------------------------------------------------------------
---------------------------------------------------------------------------

e-7-7-7-3/5-5-5---------------------------7--7--7------|-7------------|---
B-7-7-7-5/7-7-7-9---7---9b10-9-------7----10b12r10-7---|-10b12r10-7---|---
G---------------9-7-8-9-9b11-9-7h8---8-------------8-9-|----------8-9-|---
D---------------------9------------9---9-------------9-|------------9-|x2-
A------------------------------------------------------|--------------|---
E------------------------------------------------------|--------------|---

e-7-----7--7--7---7-----7--7--|-----------------
B-10b12-12-12-12--10b12-12-12-|-----------------
G-----------------------------|---8-7-----------
D-----------------------------|x4-----9-7-----9-
A-----------------------------|-----------9-7-9-
E-----------------------------|---------------7-

G C A D B E C# F# D

D5 C5 C/B5 C/Bb5

|-------------------------------------------------|
|---------------3-3--------------------9-9-9--9-9-|
|---------------2-2--------------------9-9-9--9-9-|
|-----2--4-2----0-02--4-4--2-2---------9-9-9--9-9-|
|--------2-0----  c>0--2-2--0-0-2-----5-7-7-7--7-7-|
|-0-34-0-----340---------2-----0--567-------------|

e-5-5-5--5-5-5--5-5-5-5-----------5-5-5--5-5-5--5-5-5/14-14-14--14-14-14-
B-7-7-7--7-7-7--7-7-7-7-9---7-----7-7-7--7-7-7--7-7-7/16-16-16--16-16-16-
G-----------------------9-7-8-9------------------------------------------
D-----------------------------9------------------------------------------
A------------------------------------------------------------------------
E------------------------------------------------------------------------

e--------|-------|---------------------------------------------------
B--------|-9-7---|---9-----------------------------------------------
G-8b-7-9-|-9-7-9-|---9-7h8---------7----7---7------7---9------7---7--
D------9-|-----9-|x7-------7-9-7---9--9---9---9--9---9---9--9---9--9-
A--------|-------|---------------9-----------------------------------
E--------|-------|---------------------------------------------------

Bm		E
Go go go little queenie...

Outro solo
|-5557-7--------/55557-7-7---------/12121212121212111112121111-9-9|
|-7777-7-79-----/77777-7-79-7------/141414141414141212141412121010|
|---------978-------------978-------------------------------------|
|------------9---------------97-----------------------------------|
|------------------------------9----------------------------------|
|-----------------------------------------------------------------|

|-77--------------------|
|-77977--7---77---77...-|
|---978--7---77---77...-|
|------977---77---77...-|
|--------9--999--999...-|
|-----------------------|

In The Lap Of The Gods
----------------------

 0:10
e---------------------------------------------------
B---------------------------------------------------
G---------------4-5---------------------------------
D-----------5/7--------1-----0h1--4----1------1-----
A-8-7\5-7/8--------------2h3-------------4-1----4-1-
E---------------------------------------------------

G Gdim G Gdim (345353)

Verse: (Try using the wah-wah bar on the chords, it gives it the
	same feel as the vocals)
C F
C F Dm Am
1:Dm Am Fm G
2:Dm Am Gm

Gm 	 C7
Leave it...
Gm C7  Ebdim (x67575)
Gm C7 x2
Fm7 Bb7 x2
F Bb xn
In the end there's a bit of Gm and then Cm
 2:14
e---------------------------------13------------13_________________________
B..15p14p13-13-------------13--15-----13------------------------------13---
G--------------14-10b12r10---------------14--10----10-b12-r10--/14-15----10
D--------------------------------------------------------------------------
A--------------------------------------------------------------------------
E--------------------------------------------------------------------------

e---------------------------------------------------------------------
B-18--15h18-15----15---------------------15--------------18-15--------
G--------------17----17-15--17-14h15h17-----17-15-14----------1715-17-
D----------------------------------------------------15---------------
A---------------------------------------------------------------------
E---------------------------------------------------------------------

e----------------------------------------------------------------------
B----------------------------------------------------------------------
G-17--15-14-15-17--15-14-15p14h15p14h15-17--15-14-15-15p14h15-14-15----
D----------------------------------------------------------------------
A-------------------------------------------------------------------15-
E----------------------------------------------------------------------

e--------------------------------------------------------------------------
B------------------------------------16-16-18brbrb/20-20-20-20-20-20-20-20-
G------------------------15-15-17-17---------------------------------------
D------------15/17-17-17---------------------------------------------------
A-15~~-15/17---------------------------------------------------------------
E--------------------------------------------------------------------------

e------------------------
B-19-19-19-19-18br-16----
G---------------------17-
D------------------------
A------------------------
E------------------------

Stone Cold Crazy
----------------
Tab by Pinter Denes

|----------------------------------|
|----------------------------------|
|----------------------------------|
|----------------------------------|
|-F.B.-----------------------------|
|-  A#>--trem down/release 4 times--|

left and right guitars             left guitar
|-----------------------------|----|----|---------------------------------|
|-----------------------------|----|----|---------------------------------|
|--------3--------------------|-0/-|-0/-|---------------------------------|
|--------3--------------------|-/0-|-/0-|--3555530------------------------|
|--------1--------1333-2-3-4-5|----|----|---------1--------1333-2-3-4-5---|
|-1333331-----1333------------|----|----|--------------1333------------3\-|
 \--------------\/----------------/|right guitar
              riff A               |--------------------------------------*
                                   |--------------------------------------*
                                   |--------------------------------------*
                                   |-3555530---------------------3555530--*
                                   |--------1--------1333-2-3-4-5-------1-*
                                   |-------------1333---------------------*
*-------------------------|
*-------------------------|
*---------3555-4-5-6-7----|
*-----3555------------5\--|
*-3535--------------------|
*-------------------------|

two guitars/riff B
|----------------|
|-5----5p3---5---|
|-5----5p3---5---|
|-5----5p3---5---|
|-3----3-----3---|
|----------------| 

riff A

two guitars:

1-st solo:
|-------------------------------------------------------------------------|
|10b12----12r10p7------------------------------------------------------7b-|
|-----------------10p9p7---9-7--------(7)-(7)------------------9p7-----7b-|
|------------------------9-----9-------7---7---------------7-------9------|
|----------------------------------7h9---9---9\7-5-7p5-7/9---9------------|
|-------------------------------------------------------------------------|

e--------------
B--------------
G-4-2----------
D-----4-2-0----
A-----------2\-
E--------------

left and right guitars         left guitar
|-----------------------------|------------------------------------|
|-----------------------------|------------------------------------|
|--------3--------------------|--------3---------------------------|
|--------3--------------------|--------3---------------------------|
|--------1--------1333-2-3-4-5|--------1-----------1333-2-3-4-5----|
|-1333331-----1333------------|-1333331--------1333------------3\--|
                              |right guitar
                              |------------------------------------|
                              |------------------------------------|
                              |--------3------------3555-4-5-6-7---|
                              |--------3-----3--3555------------5\-|
                              |--------1--335--5-------------------|
                              |-1333331----------------------------|

left guitar                        two guitars
|----------|----------------------|----------|----------------------------*
|------5---|-3--------------------|----------|-3---4----4p2--4----4p2-4---*
|------5---|-3--------------------|----------|-3---4----4p2--4----4p2-4---*
|------5---|-3--------------------|  riff B  |-3---4----4p2--4----4p2-4---*
|..PM..----|-3---3p1-3p1----------|----------|-1---2----2----2----2---2---*
|-33333----|-------------3p1-3-3--|----------|----------------------------*
|right guitar                     | 
|           ----------------------|          *------------------------|
|           --3---------5---------|          *-4p2--------------------|
|           --3---------5---------|          *-4p2--4---2-------------|
|           --3---------5---------|          *-4p2---------4---2--0---|
|           --3---------3---------|          *-2--------------------2-|
|           ----------------------|          *------------------------|

2-nd solo / 1'23"
|-----------------------------------------------|
|-----------------------------------------------|
|-----------------------------------------------|
|---------------------------79979--7------------|
|-----0-0-0h2---5---5/9-9-------------9--7--5---|
|-0h2-----------------------------------------7-|
 

     delay on
|-----------------------------------------------10b12---|
|---------------------10b12-----12r10p7-----------------|
|-9b11---9b11r9---7--------------------10p9p79p7--------|
|-------------------------------------------------------|
|-------------------------------------------------------|
|-------------------------------------------------------|

|-12r10p7-------77-------------------------------------------|
|--------10b12----10b12r10p710p77----------------------------|
|--------------------------------10p9p79p79b11--7------------|
|--------------------------------------------------9--7------|
|--------------------------------------------------------9\/-|
|------------------------------------------------------------|

|-------------------------------------------------------------------------|
|-----------------------------------------------------------------20b22__v|
|12----12----13----13---14----15----16----17---18---20---21---21----------|
|--1412--1412--1513---13--1614--1715--1816---17---18---19---19--20--------|
|-------------------------------------------------------------------------|
|-------------------------------------------------------------------------|

two guitars      
|----------|
|----------|
|----------|
| riff A   |
|-------3\-|
|----------|

right guitar/1'59"
|------------|
|------------|
|------------|
|------------|
|------------|
|-xxxxxx.....|

two gtrs.
|----------------|
|----------------|
|----------------|
|-5  riff B  -5--|
|-5-----------5--|
|-3-----------3--|

Dear Friends
------------
Transcribed by Pinter Denes

Dropped-D tuning (I hate it)

piano arranged for acoustic guitar
|----------10----9-7---5-------|-5---10---14---14-12---10----9-------|
|-7---10---10------8---5---7---|-7---7----10------10---10-9-10-------|
|-7---11---11------7---7-6-7---|-7---7----11-------9----9----9-------|
|-7---12---12--------------7---|--------7-12------11----9----7-------|
|-5----9----------10-9-7---5---|-5-5-9---------------------------0---|
D------------------------------|-------------------------------------|

|-2---0---3---2-------------------0---0---2---2---0---2---3---|
|-3---3---3---3---3---3---3-------3---3---3---3---3---3---2---|
|-2---2---4---2---4---2---4-------2---2---2---2---2---2---2---|
|-0---------------5---4---5---2-----0---0---0---0-------------|
|-----4---2---0-------------------------------------0---0-0---|
D-----------------5---4---2-----------------------------------|

|----------10-9-------7---5-----------|-5---10---14---14-12---10----9-----|
|-7---10---10---12-10-8---5---7-------|-7---7----10------10---10-9-10-----|
|-7----7---11---------7---7-6-7-------|-7---7----11-------9----9----9-----|
|-7------7-12-----------------7-------|--------7-12------11----9----7-----|
|---5--9-------------10-9-7---5-------|-5-5-9---------------------------0-|
D-0-------------------------------0---|-----------------------------------|

|-2---0---3---2--------------------------------------------------|
|-3---3---3---3---3---3---3------2---2---0---2---0---3---3-------|
|-2---2---4---2---4---2---1------2---2---2---2---0---4---2-------|
|-0---------------5---4---2------2---2---2---2---0---5---4-------|
|-----4---2------------------------0---0---0---0---------5-------|
D-------------4---5---4---2----------------------5-4-2-------0---|

Misfire
-------
Deacon at his best!

Intro:
G C x3 G D

Verse 1:
G C x3 G D
Em   A7 C x3
G C x3 G D

Solo:
 0:38
e-------------------------------------------------
B-8-------8-----------4-----4---------------------
G---8---8---8-7---6-----5-----5------4---/6----/8-
D-----8---------8---------6-----6---6--/8---/10---
A-------------------------------------------------
E-------------------------------------------------

Verse 2:
Bb Eb x3 Bb F
Gm   C7 Eb x2
Gm C7
Bb C7 Eb Eb
Bb Eb x4
C F x2
Db Gb x4
Eb Ab xn
Outro:
 1:18
e-------------------|---20\19------19-20p19h20p19----|-------------
B-10h11p10h11p10----|---------20------------------20-|-------------
G----------------10-|--------------------------------|-22p20/22----
D-------------------|x2------------------------------|----------x4-
A-------------------|--------------------------------|-------------
E-------------------|--------------------------------|-------------

Bring Back That Leroy Brown
---------------------------
Guitar solo at 0:50 by Pinter Denes
There is also a ukelele tab by Pinter, but I bet it doesn't interest the 
general audience. Maybe someday I'll arrange it for guitar.

Chorus (Bring back...):
C G7 x3 C G7+5 (353443)
The chorus repeats twice except for the last time,
listen for the album if not sure.

Verse 1&2:
C G+(xx5443) C G#dim Am
C F G (C Dm D#dim C/E)
Am Bdim Am C#dim
C B7 Bb7 A7 Dm7 F#dim G7 C G7+5 (Very fast chord changes!!!)

0:50
|----------------------------------------------------------|
|--------87---------------------------------810-12/1415/17-|
|-(5)-789--108108-----------------------57/9---------------|
|----------------1010----------------57--------------------|
|--------------------------3--0--/57-----------------------|
|----------------------------------------------------------|

|-1517-15---15(17)-1517-15------------1517-15-----------------------------|
|--------18---------------17\151315/17-------17\151315-1315-13-----13-(0)-|
|-------------------------------------------------------------14-12-------|
|-------------------------------------------------------------------------|
|-------------------------------------------------------------------------|
|-------------------------------------------------------------------------|

Verse 3 (Big mama lulu belle verse):
C G+ C E7 Am
C G7 C Em Am
Dm Am Dm Am \___Slowly
Dm F B7 G7  /
C   Am G#dim Am
G7  C G7

Verse 4 (Big sensation verse):
C G+ C G#dim Am
C G7
C  Dm7 D#dim C F
We want...  ...For president
F A7 D7 G7 - Ukelele break
C
Next time...
This time...

Dm Am C G Am F#dim
	  ...from
C B7
C G7 C

She Makes Me (Stoemtrooper In Stilettos)
----------------------------------------
Chords by Ted Hermary (czth@musica.mcgill.ca)
Verse and outro tab scatched by Pinter Denes, arranged by me.

Intro:
D  A x4

Verse:
D A x6
|-2-2-2-0----|
|-3-3-3-2----|
|-2-2-2-2----|
|-0-0-0-2----|
|-------0----|
|------------|
D C
G A
|-2-2-2-3----||-3-3-3-3----||-3-3-3-0----|
|-3-3-3-1----||-1-1-1-3----||-3-3-3-2----|
|-2-2-2-0----||-0-0-0-0----||-0-0-0-2----|
|-0-0-0-0----||-0-2-2-0----||-0-0-0-2----|
|------------||-------2----||-2-2-2-0----|
|------------||------------||------------|
D A x2

Chorus:
(E) A E A D*
A C#7 F#m B7
D A
     who knows...
-0---0--0--0--0--0--0--0--0--2--2--2--2--2--2--2----2---0--0--4--4--2--2-
-0---2--2--0--0--2--2--2--2--0--0--2--2--0--2--3--232-3-2--2--6--6--2--2-
-1---2--2--1--1--2--2--1--0--2--2--2--2--2--2--2----2---2--2--4--4--2--2-
-2---2--2--2--2--2--2--2--2--0--0--0--0--0--0--0----0---2--2--6--6--4--4-
-2---0--0--2--2--0--0--0--0-----------------------------0--0--4--4--4--4-
-0---------0--0-----------------------------------------------------2--0-

-------2------2--2--2--0-
-4--4--3------3--3--3--2-
-4--4--2------2--2--2--2-
-4--4--0------0--0--0--2-
-2--2------------------0-
-------------------------

outro chords:
Beneath each part is written how many times it is played.
she is my love...
|-5-5-5-3----||-3-3-3-1----||-3-3-3-1----||-3-3-3-1----||-1-0-1-0--|
|-7-7-7-5----||-5-5-5-3----||-5-5-5-1----||-3-3-3-1----||-3-3-3-1--|
|-7-7-7-5----||-5-5-5-3----||-4-4-4-2----||-4-4-4-2----||-3-2-2-2--|
|-0-0-0-0----||-0-0-0-0----||-0-0-0-0----||-0-0-0-0----||-------0--|
|------------||------------||------------||------------||----------|
|------------||------------||------------||------------||----------|
     x4		  x2		x1		x2	 Till end

In the end hold an A note (Dm7 or G-2)

In The Lap Of The Gods...Revisited
----------------------------------
Tabs by Pinter Denes

Verse:
	D
It's so easy...
	Em     Ebdim
It's so funny...
Em A
D F#m/C# D7/C B7 Em/B  A7

0:32
-------2-----------------------------------------------------------------2-
-2-3-2-3-------------------------2----------------------------------2----3-
-2-2-2-2-------------------------2----------------------------------2----2-
-2-2-2-0------0------------------2---7------------------------------2----0-
-0-0-0-----3----2---7---5--7-4---0---5---4--5-7---6--7-/10-----10-5\0------
-----------------------------------------5---------------------------------

1:25
-----------2----------------------------------------- ----------------------
-22--2-22--3-------------------------2--------------- --------------------2-
-22--2-22--2-------------------------2--------------- --------------------2-
-22--2-22--0------0------------------2--(7)---------- --------------------2-
-00--0-00------3----2---7---5--7-4--\0---5---4v--5-7- --6--7-/10-----10-5\0-
--------------------------------------------(5)------ ----------------------
     
Добавлено: 13.06.2013
Другие материалы по этой песне:
  • Аккорды и текст

Страница создана 13.06.2013
http://primanota.ru/queen/sheer-heart-attack-album-chords.htm
Привет, Гость.
Предлагаем пройти революционный курс по гитаре.
Подарок от PrimaNota.Ru, забирай!