PrimaNota.ru - самый крупный в мире бесплатный архив песенных текстов, аккордов, табулатур и нот


Queen - Night At The Opera Album - таба, видео

Регистрация Запомнить меня
Войти через:  Facebook Google Twitter Vk Yandex Mail.ru

Queen - Night At The Opera Album - таба, видео

Печатать
Просмотров: 192
	Queen - A Night At The Opera
	----------------------------
This is the complete tab of A Night At The Opera. Most of the
tabs aren't my work, and I mentioned the author in the songs. Those w/o
credits are my own. For comments, correction, etc. e-mail me at:
yshkedy@ort.org.il

		Yotam "Kurgan" Shkedy

Death On Two Legs
-----------------
Tab by Pinter Denes

43" H H H                H  H  H  H  H  
|--14-14-------|--14>>>|-14-14-14-14-14-------|
|-------14-----|-------|---------------(0)----|
|---------11---|-------|------------------11v-|
|--------------|-------|----------------------|
|--------------|-------|----------------------|
|--------------|-------|----------------------|
48"
|------------------------|---------------------------------|
|------------------------|---------------------------------|
|------------------------|---------------------------------|
|-9v-------9-8v------7---|-6---(\4)--0-4-5----0-4__/13\----|
|--------9---------9-----|---------2-----------------------|
|------------------------|---------------------------------|

F# G F#

55"
|---------------------14-15-17-15h17p15-14-15-14h15p14----14----15--------|
|17b19-----14--15--17----------------------------------17----17----18b20v-|
|-------------------------------------------------------------------------|
|-------------------------------------------------------------------------|
|-------------------------------------------------------------------------|
|-------------------------------------------------------------------------|

|-17-----------------------------------------------------------------|
|------15--14--15v------14--15--17--b19_rbrp1515-14-15-b17___r-14----|
|--------------------------------------------------------------------|
|--------------------------------------------------------------------|
|--------------------------------------------------------------------|
|--------------------------------------------------------------------|

|----------------------------------|
|-15-14h15p14---14-----------------|
|------------------16-15-----------|
|------------------------17-16vv---|
|----------------------------------|
|----------------------------------|

1'14"
|------------------------|----------------|----|
|------------------------|-10--10--10--10-|----|
|------------------------|-11--11--11--11-|-0/-|
|-5------4---..4-4-4-4-/-|-12--12--12--12-|-/0-|
|-5------4---..4-4-4-4-/-|-12--12--12--12-|----|
|-3------2---..2-2-2-2---|-10--10--10--10-| 2X |

Gm Cm

1'33"
|------------------------|-------------------------------|
|------------------------|-------------------------------|
|------------------------|-------------------------------|
|-9v-------9-8v------7---|-6---(\4)--0-4-5___7p5p0-4-----|
|--------9---------9-----|---------2---------------------|
|------------------------|-------------------------------|
|
| H  H  H               H H
|-14-14-14-----|-------14-14v|
|--------------|-------------|
|----------11v-|-11-11-------|
|--------------|-------------|
|--------------|-------------|
|--------------|-------------|


|------------------------|
|------------------------|
|------------------------|
|-9v-------9-8v------7---|
|--------9---------9-----| A xxxx
|------------------------|

1'46"        xxx 
|--------------------------------------------|
|--------------------------------------------|
|-2--------------3--------3---------------4--|
|-0--------------4--------4-----------0---4--|
|-------/5---30--4--------4------2--------2--|
|--------------4-2----00-02-------------0----|

1'56
|---------------------------2----------2----------------|
|--2--------2-2---2---------3----------3-----3----------|
|--2--------2-2---2---------2----------2-----4-----3----|
|--2--------2-2---2---------0----------0-----4-----4----|
|--0--------0-0---0-------0----------0-------2-----4----|
|0------2-3-----------2-3--------2-3---------------2----|

|-------------------------------------------------------|
|-------------------------2-------2----------3----------|
|-------------4-----4-----2-------2----------2----------|
|-4-----4-----4-----4-----2-------2----------0----------|
|-4-----4-----2-----2-----0-------0--------0----------0-|
|-2-----2----------2----------2-3------2-3--------2-3---|

2'23"                             trem.
|--------------------------------------------|
|-trem---5-4-3-2-----------------------------|
|-6rr2-----------5-4-2-----------------------|
|----------------------4-2-------------------|
|--------------------------4-3-2-0\\\\////---|
|--------------------------------------------|

2'31"
|--------------------------------------------------------------------2---|
|----3-------------------------------------------------------------3---3-|
|----2-------2----------------------------2----------------------2-------|
|-9\-0-----4-------0-2-----------0------4-------0-2------------0---------|
|--------------4-------2---0---4------------4-------2----0---4-----------|
|------------------------------------------------------------------------|

|-------------------------------------------------|
|-------------------------------------------------|
|---2---------------------------------------------|
|-4-------0-2-------------------------------------|
|-----4-------2---4-5-0---2-4-----0-2-------------|
|-----------------------------3-------0-2--220-2--|

2'31"
|-2------------------------------------------------------------------|
|-3--------3-5/7------------------7----------------------------------|
|-2----------------7-9-b11--9b11---9p7-7--\2------7---7---9-b11------|
|-0----4h5----/7----------------------7---------7__-7----------------|
|--------------------------------------------4/5---------------------|
|--------------------------------------------------------------------|
                                          tr
|----------7--------------------------------------------------------|
|-----11----11----------------------------7v------------------------|
|----------------7---10r9p7-9p7-----7---9---------7-9b11-vr9-7-9v---|
|-2/7---------------------------9p7-------------7-------------------|
|-------------------------------------------------------------------|
|-------------------------------------------------------------------|

|-----------------|
|-----------------|
|-----------------|
|-7h9-9p7---------|
|---------9p7-9---|
|-----------------|

2'53"                   trem.
|------------------------------|-10--10--10--10-|----|
|------------------------------|-10--10--10--10-|----|
|------------------------------|-11--11--11--11-|-0/-|
|-5-->>>>--3-------------------|-12--12--12--12-|-/0-|
|-5-->>>>----5-3-1-4--xx0\\\\--|-12--12--12--12-|----|
|-3----------------2-----------|-10--10--10--10-| 2X |

Gm Cm
|------------------------|-------------------------------|
|------------------------|----------------------------6/7|
|------------------------|----------------------------6/7|
|-9v-------9-8v------7---|-6---(\4)--0-4-5----0-4--------|
|--------9---------9-----|---------2---------------------|
|------------------------|-------------------------------|
         H          H  H  H  H  H  H  H
|-------19b21r19-|-14-14-14-14-14-14-14----|
|----15----------|-------------------------|
|-16-------------|----------------------11-|
|----------------|-------------------------|
|----------------|-------------------------|
|----------------|-------------------------|

|------------------------|
|------------------------|
|------------------------|
|-9v-------9-8v------7---|
|--------9---------9-----| A D xxxx F# Bm A D
|------------------------|


Lazing On A Sunday Afternoon
----------------------------
Solo by Pinter Denes
The solo here is only the middle (Main) channel.
If you want all three guitars (Middle, left & right) check out
Pinter Denes' file for this song on .

Eb	Eb Bbm C7
I go...
Fm Eb Gm Cm
Fm Bb Eb
D7	    Gm
Bicycling...
D7 C#dim F7
  Gm   Dm Eb D/F#
I come...
Eb Bb7 Db7 C7
    Fm    Eb Gm Cm
I'm bound...
Fm7 Bb7 x3 Eb Fm7 Bb7

Solo:
|-3//17---17-16---17-14------------------------|
|-------------------------14-14----------------|
|-------------------------------16-14-16b18v---|
|----------------------------------------------|
|----------------------------------------------|
|----------------------------------------------|

|-/17---16-14---16----------------------------------*
|------------------17---14-15-16-17---16-15-17-14---*
|---------------------------------------------------*
|---------------------------------------------------*
|---------------------------------------------------*
|---------------------------------------------------*

*-----------------------------------------------------------------------|
*-17b19---17-15---14----------------------------------------------------|
*--------------------16br---14-16b17---16-14h16p14----------------------|
*-------------------------------------------------16p14---14-14----16---|
*---------------------------------------------------------------16------|
*-----------------------------------------------------------------------|

|--------------------------------------------------------------|
|----------------------------------------------------17///22---|
|------------------14-13h14p13------16b18---16-14--------------|
|----------14-16-----------------14----------------------------|
|-16-17--------------------------------------------------------|
|--------------------------------------------------------------|

I'm In Love With My Car
-----------------------
Tabs by Pinter Denes

Intro: D

Throughout the song: Em G D C
Bridge ("Told my girl..."): B C B C D

---------------------------------------------------------------------------
----------------------------------------2-3-5b7v----r5p3-5p2-3p2-----------
------0h2h4p2~4-p0----------------0h2h4---------------------------4p2-4p0h2
0h2h4--------------2-----0----2h4------------------------------------------
----------------------4----------------------------------------------------
---------------------------------------------------------------------------
37" 
|-------------------------------------------|
|------------------------____________-------|
|---------------14b16___r15b16r14p1214b16---|
|------------14-----------------------------|
|---------14--------------------------------|
|-*-12-15-----------------------------------|

|----------------------------------------|-----------------------------|
|-15b17----15--13--12--------------------|-b20__18-b20--b19-b20__r-17--|
|----------------------b15_r14p12--------|-----------------------------|
|---------------------------------14-12--|-----------------------------|
|----------------------------------------|-----------------------------|
|----------------------------------------|-----------------------------|

                           1'21"
|-------------------------|-----------------------------------|
|-------------------------|-----------------------------------|
|-15__r14p12-14b15--------|-4p2----------------------7rrr4----|
|--------------------14---|--------3p2p0-----4/5--------------|
|-------------------------|--------------2--------------------|
|-------------------------|-----------------------------------|

|------------------------------------------|
|------------------------------------------|
|-7b9__-7--5--4--5--4~5--------------------|
|------------------------7-5~7---5\4-------|
|-------------------------------------7p5--|
|------------------------------------------|

1'43"
|----------------------------------------------------|
|----------------------------------------------------|
|-----------------------2h4h5---4h5p4p2p0h2p0--------|
|-2h4h5p4p2p0---0h2h4h5-----------------------4p2p0--|
|----------------------------------------------------|
|----------------------------------------------------|

|---------------------------------------|---------------------------------|
|---------------------------------------|-15--17v-----15--17--b19_r17-----|
|----------------------------12h14b16v--|-----------------------------14--|
|----------------------12h14------------|---------------------------------|
|----------10--12--14-------------------|---------------------------------|
|-8//1012-------------------------------|---------------------------------|

|--------------------------------------------------17-----------|
|-(17)b20---b19--17--15--17--17b19_r17p15--17--19------19b21v---|
|---------------------------------------------------------------|
|---------------------------------------------------------------|
|---------------------------------------------------------------|
|---------------------------------------------------------------|

2'34
|------------|-----------|--------------------|---------------------|
|------------|-----------|--------------------|---------------------|
|-0h2h4p2----|-----------|-p2h4p2p0-----------|-4h5p4p2p0h2h4p2p0---|
|---------0--|-5p4p2p0---|------------3---0---|---------------------|
|------------|-----------|--------------------|---------------------|
|------------|-----------|--------------------|---------------------|

|-------------------|
|-5p3-5p3---3-------|
|---------5---5b7---|
|-------------------|
|-------------------|
|-------------------|

---------------------------------------------------------------------------
-----------------------------------------------------------------3---3-5b6v
5---2--5p2-5p2-5p2---------------------------------------------5---5-------
-------------------5p3-5p3-------------------------------6r5b6-------------
---------------------------5--5p3-5p3------------3-5-3-5-------------------
--------------------------------------5p0-5-3-1----------------------------

two gtrs arr for one
|-3-3----3-3--0-----0-2-2--|
|-3-3----2-3--3--3--3-3-3--|
|-0-0----2-2--2--2--2-2-2--|
|-0-0----2-2--------0-0----|
|-2-2----------------------|
|--------------------------|


You're My Best Friend
---------------------
Chords by Pinter Denes

Dm/C C x4
Dm/C C  G/B    Am
           D                   F    G
You're the best friend that I ever had
C G/B Am
D F G
E/G# Am G F Fm6    C
Dm/C                    C    
Ooo, you make me live
C    CaddG# C6 C7                F               Fm6
 I've been wandering round but I still come back to you
G E Am D7
G6 G C

Repeat every thing again
End:
Fm6 C x2
Dm/C C x2
G C x4 (Third time use barre chords on third fret
	Last time use C-base 7th fret for G and 8th fret for C)
1:58
e-(24)b26r25~- it doesn't get higher than that!

Solo:
 2:02
e---------------------------------------------------8-10^^^^-
B----------------------------------8-8--9--9--10-12----------
G-------5------5----5----5/9-7-5-----------------------------
D---2-5----2-5----5--------------7---------------------------
A-3----------------------------------------------------------
E------------------------------------------------------------
2:21
e---------------
B---------------
G-5-2-----------
D-----5-3-2-----
A-----------3-5-
E---------------

'39
---
Chords (Execpt first two lines of intro & bridge):
ken@batman.austin.ibm.com (Ken Goach)
pat@jaameri.gsfc.nasa.gov (patrick m. ryan)

Capo I

Intro
C Am E
Bb  C Am G (Not exact, but that's all I could figure)

   G       D      Em        C     G    D   C      G
---3-------2------0----0----0-----3----2---0------3------
---3-------3------0----0----1-----3----3---1------3------
---0-------2------0----0----0-----0----2---0------0------
---0-----0-0------2----2----2-----0--0-0---2-0_2--0------
---2-2_3--------2-2--2-2--3-3-----2--------3------2------
-3------------------------------2-3---------------3------


   G       D      Em        C     G  D           G G G G (folk strum)
---3-------2------0----0----0-----3--2---------
---3-------3------0----0----1-----3--3---------
---0-------2------0----0----0-----0--2---------
---0-----0-0------2----2----2-----0-----3-2-0--
---2-2_3--------2-2--2-2--3-3-----2------------
-3------------------------------3-3------------

Verse:
D Em C G D
Em Em7 C G D G
D B7 Em Em Am (/C /B /A /F#)
G D C Em C D C (G) D

Chorus:
G C G G D
G G/F# Em D C G/B Am Em D G

Bridge:
Am C
A   C   C Am E
Bb  C Am G

Verse
Chorus
D
Chorus
Outro: Last line of intro.

Sweet Lady
----------

E-7th fret
B-7th fret
D-5th fret
A-5th fret

Main riff: E E Esus4 E  D D Dsus4 D  AA Asus4 A E
Verse riff: E E Esus4  A A Asus4 A  B A  E
At the end of those riffs there a small fill which is different every time,
I will tab it along the song.

Intro: 
Intro riffx4
 0:04	      0:11	   0:17
e------------|-----------|---------------|
B------------|-----------|---------------|
G----------9-|---------9-|-----9--9--9-9-|
D----------9-|---------9-|-----9--9--9-9-|
A----------7-|---------7-|-----7--7--7-7-|
E-0-7b-5-3---|-0-4-5-6---|-0-5-----------|

Verse:
Verse riff x2:
A  B A
B  C#m A7
Main riff(I:x2,II:x1)
 0:29;0:40
e---------|
B---------|
G-------9-|
D-------9-|
A-------7-|
E-0-4-7---|

Chorus:
Em A x3
C A E
This riff is played over the chorus. It is NOT 100% correct, so feel free
to fool around as you wish - Corrections, as always, welcomed.
 0:59
e-----------------------------|-----------------------------
B-----------------------------|-----------------------------
G-----------------------------|---------------------------9-
D-------------7-5-7-5---5-7-5-|x3-5-2-5-2-----5-2-5-2-----9-
A-7-5-7-5---5---------7-------|-----------5-2---------5-2-7-
E---------7-------------------|-----------------------------

Everything all over again for second verse.

After second chorus:
Main riff x2
 2:01
e------------|
B------------|
G----------9-|
D----------9-|
A----------7-|
E-0-7b-5-3---|

Bridge ("My sweet lady..."):
B  D A E
B  C#m D A D  E(Verse riffx2 the second time is only
		the second half of the riff)

Chorus

I won't tab the outro, it's has about 20,000 different guitars playing all
together with other background noise. Good luck to who ever tries to figure
it out.

Seaside Rendezvous
------------------
Intro by Pinter Denes

Intro:
|------------3------------------------------------------------------------|
|-----------------6-----5---3---3---2---3-2---3-10---8---6---5-3----------|
|0h2---3/4--------4-----4---4---4---3---4-3---4-10---9---7---5-4----------|
|--------------5------5-------------------------12---10--9---7-5----------|
|2h3---4/5----------------------------------------------------------------|
|---------------------------3---3---------------------------------33-33-33|

Verse:
C     G
Dm(7) G7
C  C7
F G7 C Am
Dm   Gm7
C C/B C/Bb A7
G7 F# F G7 C

Chorus ("I feel so romantic..."):
F     C7 (C7 Gm Eb C7)
C7    A7 D7
Bb A7 Fm G7

Solo (Over verse chords):
The solo is (mostly) NOT a guitar. I tabbed the only parts that can be
played on guitar, so it's sort of flacky, but that's it.
 0:52
e-------------------------------------|---------------------------
B------------------10---8---5---------|---------------------------
G-9~--9~--9-9--8-9----9---5-----------|-10~-10~--10-10-9-10---7-9-
D-----------------------------5-67-65-|---------------------------
A-------------------------------------|---------------------------
E-------------------------------------|---------------------------

e------------16-19-16-------------|
B-16---16-18----------18-16----16-|
G---------------------------16----|
D---------------------------------|
A---------------------------------|
E---------------------------------|

Chorus
Verse
Last line of verse is played 3 times and end on C

The Prophet's Song
------------------
Tabs up to 1:55 and the outro are Pinter Denes' work.

all guitars are in drop D tuning
0:10
|------------1--------------------------------------1-----|
|--------1------3------------------------------1----------|
|--------3------2------------------------------3----------|
|--------3------0------------------------------3----------|
|---------------------------------------------------------|
|-0-------------------------------------------------------|
|             two guitars:                                |
|             guitar left >- 1 octave -> guitar right     |
|             |------------------13--------| |------13----|
|             |-----------------------15---| |-11---------|
|             |----------14-15-------------| |-10---------|
|             |-12-14-15-------------------| |-12---------|
|             |----------------------------| |------------|
|             |----------------------------| |--  left  --|


|-----------1----------(gtr.l)--12-------1--------------|
|---------3---3----------------------1------------------|
|-------2-------2---------(gtr. r.)--3------------------|
|-----0-----------0---0---------12---3------------------|
|-------------------0---0---0---0-----------------------|
|-0-----------------------3---3-0-----------------------|


|-1-------0-----------------------------------5-----------|
|-3-------1-------3---------------1h3-3p1-3---8-----------|
|-2-------0-------3---0---2-------0h2-2p0-2---7-----------|
|-0-----------0---3-------0-------0-----------------------|
|-----------------1---1h3---------------------------------|
|-----0-----------------------0---------------------------|
|         right guitar                koto:    | left guitar
|----------------------1013------------0-----5-|------------------------17|
|--------------------11--15----------6---------|---------------15-17-18---|
|--------------------10--14--------------7-----|---------14-15------------|
|--------------------12--15--------------------|12-14-15------------------|
|----------------------------------------------|--------------------------|
|----------------------------------------------|--------------------------|

|-1-------0---------------1-------------------------------0---|
|-3-------1-------1h3-3p1-3-------1h3-3p1-3---3p1-3-------1---|
|-2-------0-------0h2-2p0-2-------0h2-2p0-2---2p0-2-------0---|
|-0-----------0---0-------0-------0-------0---0---0-----------|
|-----------------0---------------0---------------------------|
|-----0-----------------------0-------------------------------|
|guitar right                                                 |
|-------------------------------------------------------------|
|-6-------5-------(h7)----6-------6---6p5-6---6p5-6---5---5---|
|-7-------5-------5h7-7p5-7-------7---7p5-7---7p5-7---5---5---|
|-7-------5-------5h7-7p5-7-------7-------7-------7---5---5---|
|-----5------5----5---5-----------------------------------3---|
|-----------------------------0-------------------------------|
|guitar left                                                  |
|-------------------------------------------------------------|
|---------6-------------------------------------------5---5---|
|---------7-------5h7-7p5-7-------5h7-7p5-7---7p5-7---5---5---|
|---------7-------5h7-7p5-7-------5h7-7p5-7---7p5-7---5---5---|
|---------------------------------------------------------3---|
|-----------------------------0-------------------------------|

|-1-------0---------------1-------------------0---|
|-1-------1-------3-------3-------1h3-3p1-3---3---|
|-2-------0-------3---0---2-------0h2-2p0-2---3---|
|-3-------2-------3-------0-------0---------------|
|-0-------3-------1---1h3-------------------------|
|-----------------------------0-------------------|
|guitar right
|-------------------------------------------------|
|-----------------3---3---3-------------------3---|
|-----------------3---3---2-------5h7-7p5-7---3---|
|-3-------5-------3---3---3-------5h7-7p5-7---3---|
|---------------------------------5-----------1---|
|-------------------------------------------------|
|guitar left
|-------------------------------------------------|
|-1-------5-------3---3---3-------------------3---|
|-2-------5-------3---3---2-------5h7-7p5-7---3---|
|-3-------5-------3---3---3-------5h7-7p5-7---3---|
|---------------------------------5---5-------1---|
|-------------------------------------------------|

Verse:
Am
Am	    C D G Am
I dreamed...
Am  Dm E Am Asus4
Am	    C D Dm
Am        Bb G/B C A/C# Dm Eb E Am
I see no...
1:21,2:21
|----------------------------------|
|----------------------------------|
|----------------------------------|
|-2-----------------------------7\-|
|-0---1---2---3---4---5---6---7----|
|----------------------------------|

Chorus:
|--------------------------------------------------------------|
|---------------------------------------------------------5----|
|---------5-----------7---5---7\--------------7\5-7---5---5----|
|-----0---5-----------7---5---7\--------------7\5-7---5---5----|
|-----0---3-----------5---3---5\----------0---5\3-5---3---3----|
|-0-3---------0---*---------------0---3------------------------|

|--------------------------------------------------------------|
|--------------------------------------------------------------|
|----------5---------------2-----------------------------------|
|-3--------5-------3---3-3-0----------0---0---10---------------|
|-3--------3-------1---1-3------------0---0---8----------------|
|-3-------------------------------0-3--------------9\\---------|
First time:
|--------------------------------------------------------------|
|--------------------------------------------------------------|
|---------5-----------7---5---7\--------------7\5-7---5---5----|
|-----0---5-----------7---5---7\--------------7\5-7---5---5----|
|-----0---3-----------5---3---5\----------0---5\3-5---3---3----|
|-0-3---------0---*---------------0---3------------------------|

|--------------------------------------------------|
|--------------------------------------------------|
|----------5---------------2------------------7----|
|-3--------5-------3---3-3-0----------0---0---5----|
|-3--------3-------1---1-3------------0---0---5----|
|-3-------------------------------0-3---------5----|

|-------------------------|
|-------------------------|
|-/9----------------------|
|-/7-------2---2---2------|
|-/7-------0-x-0-x-0....--|
|------0------------------|

Second Time:
Dm C Bb F
F
And two by two...
	   Dm Gm Dm
	 B-15-20
They'll be...
C G   Bm Bm/A G D x2
F Csus2

A-Capella part - N.C

5:51
E5 E5
D5 D5 Bb5 Bb5
D5 D5 Bb5 Bb5 G5 G5 E5 E5

 5:55 (I tried to tab both guitars on one tab, to make it easier to read)
e--------------------------------------------------------------------------
B--------------------------------------------------------------------------
G-------7/9~~--7--------------7/9~~--9-9p7------------3/5~-3/5~~-------3/5~
D----------------7p5-----------------------7p5-----------------------------
A-----5--------------7-----5------------------------1------------3p1h3-----
E-5h7------------------5h7----------------------1h3------------------------

e----------------------------------7-10/12~-10/12~--------------
B-------7/8---------7/8-----8-8-8------------------7h8-7h8--7-8-
G-------7/9---------7/9----------------------------7h9-7h9--7-9-
D---------------------------------------------------------------
A-----5-----------5---------------------------------------------
E-5h7---------5h7-----------------------------------------------
 This guitar starts playing over the last notes of the previous line
e----------------------------------------------------------------------15b-
B-17-15----------------15h17p15-15b17rbr----------------------------17-----
G-------16-14----14-16-------------------16r14h16-14----------14-16--------
D-------------17-------------------------------------17-14-17--------------
A--------------------------------------------------------------------------
E--------------------------------------------------------------------------

e(17)b19r17-15----15---------------(15)b17r15---------(15)17b19r17---------
B--------------17----20\17-15----17-----------17-15-17-------------17r15h17
G------------------------------16------------------------------------------
D--------------------------------------------------------------------------
A--------------------------------------------------------------------------
E--------------------------------------------------------------------------
         6:35
e-19/22-|---------------------------------------------------
B-------|-15~--13-------------------------------------------
G-------|---------14-12-14-12-------------------------------
D-------|---------------------15h17r15-12-15-12----12-15-12-
A-------|---------------------------------------15----------
E-------|---------------------------------------------------

e--------------------------
B--------------------------
G------10--7--9--7-7-10-12-
D-7-7--10--7-(9)-7-7-10-12-
A-7-7----------------------
E--------------------------

6:48 (God give you...)
|----------------------------------|
|----------------------------------|
|----------------------------------|
|-2-----------------------------7\-|
|-0---1---2---3---4---5---6---7----|
|----------------------------------|

Chorus:
|--------------------------------------------------------------|
|---------------------------------------------------------5----|
|---------5-----------7---5---7\--------------7\5-7---5---5----|
|-----0---5-----------7---5---7\--------------7\5-7---5---5----|
|-----0---3-----------5---3---5\----------0---5\3-5---3---3----|
|-0-3---------0---*---------------0---3------------------------|

|--------------------------------------------------------------|
|--------------------------------------------------------------|
|----------5---------------2-----------------------------------|
|-3--------5-------3---3-3-0----------0---0---10---------------|
|-3--------3-------1---1-3------------0---0---8----------------|
|-3-------------------------------0-3--------------------------|

 7:08
e---------------13--13\11----------13-15\17-15-----
B-15~--15p13--------------13-13\15-------------13--
G------------14------------------------------------
D--------------------------------------------------
A--------------------------------------------------
E--------------------------------------------------

C   F C Bb Dm     D
But still..    ...man
			   7:38
e-5-----------5-----------|-------6-
B---8p7h8p7------8p7h8----|Repeat-6-
G-----------7----------7.-|many---7-
D-------------.-----------|times--8-
A-------------------------|-------8-
E-------------------------|-------6-

Outro:
|-----1------------------------------------1------------------*
|-1-------3-------------------------------3-3-----------------*
|-3-------2------------------------------2---2----------------*
|-3-------0----------------------------0------0--0------------*
|----------------------------------------------0---0---0------*
|----------------------------------0-----------------3---3-0--*
|left gtr.
|---------22-18-17--------------------|     *------------------------
|------------------18-17--------------|     *------------------------
|------------------------19-15-14-----|     *------------------------
|---------------------------------12--|     *-2h3p2p0-----0----------
|-------------------------------------|     *---------3p0---3/5v\----
|-------------------------------------|     *---------------------0--
|                         right gtr. 
|                         |-----------|
|                         |-11-10-----|
|                         |-----------|
|                         |-------12--|
|                         |-----------|
|                         |-----------|


|-----------------1-------0-------5----------10---|
|-1---------------3-------1-------6---6-8---10----|
|-3---------------2-------0-------7--------10-----|
|-3---------------0-------0-------0---8-----------|
|-----------------------------------------12------|
|---------------------0-------0-------------------|
|two gtrs.: r.g. >1 octave> l.g.| left guitar     |
|-----------13--|               |------12----13---|
|------11-------|               |---11------15----|
|---------------|               |--10------14-----|
|---------------|               |-12--------------|
|---------------|               |-----------------|
|---------------|               |-----------------|


|-5-------3---------0---0-1---------1------------|
|-----6-------5---3---3---3--------3-3-----------|
|-----7-------5-------0---2-------2---2----------|
|-----7-------5-----------0------0-----0---- 5>--|
|-5-------3-------1---3---------0----------- 5>--|
|------------------------------0--------0--------|


|-1-------0--------------12-13-----|-6-----5-----3-----1-----0-----3-----|
|-3-------1-------3---11----10-----|----------------1-----0--------------|
|-2-------0-------3---10----10-----|----5-----5-----------------0-----0--|
|-0-----------0---3---12----10-----|-5-----3-----2-----0-----------------|
|-----------------1------------12--|-------------------------3-----------|
|-----0----------------------------|-------------------------------------|
|                Left gtr.
|                |------12--13-|
|                |---11-----15-|
|                |--10------14-|
|                |-12----------|
|                |-------------|
|                |-------------|


|-----0-----------3--------0-----------0------ 12>---|
|-6-----/-3---------------5-5--------5---------------|
|-------------0----------0---0-----0-----5---- 12>---|
|-----------------------5-----5--5----------10-------|
|-5-----/-2------------3-------3---------------------|
|----------------------------------------------------|


Love Of My Life
---------------

Verse:
C Am
Dm G
C F
Dm Am Bb F
Bb Am Dm Gm
C7 F

Between Verses:
Bb F C7 F
Bb   F
G    G7

Bridge:
Dm      Am Bb (F Gm7 F A7)
You'll...
Dm Am
F#m7 F#dim Gm7
C Bb C7 F

Solo:
 2:18
e---------------------------8-8-7-8---------|------------10-\8--------13-
B-10--8-h10p8-6--8-h10p8-6------------------|-8-10/11-11-------11--------
G-------------------------------------------|---------------------10-----
D-----------------------------------10-9h10-|----------------------------
A-------------------------------------------|----------------------------
E-------------------------------------------|----------------------------
 2:40		   2:47
e-------10-11-13-|----------------------------------------
B-11h13----------|-11-11-10-11-----------8-11-13-13-12-13-
G----------------|------------------7-10------------------
D----------------|-------------8-10-----------------------
A----------------|----------------------------------------
E----------------|----------------------------------------

e---------------------------------
B-8\6-8-10-8/10-11----------------
G---------------------------------
D---------------------------------
A-------------------3-/8-\7-\5-\3-
E---------------------------------

Coda:
Dm Am Bb F
Bb Am Dm Gm7
C7 F
Dm
Am
Gm7 Bbm6 F

Good Company
------------
The intro and Verse II riffs are Pinter Denes' work.
I didn't do the solos here, because... well, you can guess yourself

Intro:
|-------11-14-------11-14-|-18__p17-18---17\16---18p16---14---|
|----12----------13-------|-14__p13-14---13\12---14p12---11---|
|-11----------14----------|-----------------------------------|
|-------------------------|-6-------6____\\\3-------3___//4---|
|-------------------------|-----------------------------------|
|-------------------------|-----------------------------------|

Verse:
Db7 Gb
Db7 Gb
Gb Gb7 B Cdim
Db Db7 Gb
Db Gb (Second verse: Twice)
Gb Gb7 B Cdim
Db Db7 Gb

Verse II (Same chords, use this riffs on top) 
 0:33 			   0:35
|-------------------------|--------------------------------------|
|-------------------------|-------------------19-----16--17/18v--|
|------------20-18h20p18--|-18__h20p18\17--18-----18-------------|
|-----18-21---------------|--------------------------------------|
|-20----------------------|--------------------------------------|
|-------------------------|--------------------------------------|
 0:41			0:43				0:46
|--------14h16phphph--|-13/14____---------------------|-14----------------|
|------14-------------|----------------------------14-|----14-------------|
|----15---------------|-------------13-14-14-13-------|-------15-11h13hp..|
|16-------------------|----------16-------------16----|-------------------|
|---------------------|-------------------------------|-------------------|
|---------------------|-------------------------------|-------------------|

Intro

Bridge ("Now marriage is..."):
Eb7 Abm
Db7 Gb
(Eb) Abm Fm Emaj7 Abm
Bm6 Bm Bb

Verse III (Only first 4 lines of Verse I)

  Gb	Gb7 B Cdim Db Db7 Bm (Slide up)
I hardly...

Bridge II ("All through the years..."):
Abm Abm/Gb Emaj7 Abm
Bm	Bb

Verse IV (Let the last Cdim last a few seconds)

Bohemian Rhapsody
-----------------
Tab by Pinter Denes

Intro:
Bb   C7 Bb C7
F7  Cm F7
Bb Cm7 Bb
Gm	Bb7 Eb
Open...
Cm F7
    B    Bb   A Bb B Bb A Bb
I'm easy come...
Eb Bb/D C#dim F/C F    Bb

Verse:
Bb  Gm  Cm  F
Bb  Gm  Cm  Bb Eb F Fm
Eb Bb/D Cm
Fm    Bb
I:Eb Bb Cm Abm Eb (Ab Eb Ebdim Fm)
Bb
II:Eb

2:18 two gtrs arr. for one
|------------|----------------------------------|
|------------|----------------------------------|
|------------|-8-------5----10------------------|
|------------|-8-------5----10-------------8----|
|------------|-6----5--3-----8----7-6--5---8----|
|-5----4--3--|-----------------------------6----|

2:35
|-------------------------------------------------------------------------|
|------------------11v---8---11b13vv------13v---15-16-13v---15-16-b18v----|
|-----10b12__r10p8---------------------(xx)-------------------------------|
|-8-----------------------------------------------------------------------|
|-------------------------------------------------------------------------|
|-------------------------------------------------------------------------|
                                                     ______
|----------------15--16--18--b20v-----18--16--15-16-15h16p15----|
|------------18----------------------------------------------18-|
|--------17-----------------------------------------------------|
|---x-17--------------------------------------------------------|
|---------------------------------------------------------------|
|---------------------------------------------------------------|

|-15-------------________-------------------|
|----18-16-15-16-15h16p15----15-------------|
|-------------------------17----17-15-15v---|
|-------------------------------------------|
|-------------------------------------------|
|-------------------------------------------|

|------------------15-16-18-------------------15-16-18--b20v--|
|---------15-16-18-------------------15-16-18-----------------|
|--15--17----------------------15-17--------------------------|
|-------------------------------------------------------------|
|-------------------------------------------------------------|
|-------------------------------------------------------------|

|------------------------------------------------------13----------|
|-15-16-13v---15-16-13v---15-16-b18vv------------------------------|
|----------------------------------------10-12-b13v----------b13v--|
|------------------------------------------------------------------|
|------------------------------------------------------------------|
|------------------------------------------------------------------|

|-9-9-9__\2-------------|
|----------2___h3p2p0---|
|--------------------2--|
|-----------------------|
|-----------------------|
|-----------------------|

Opera Section:
D A Adim A D A Adim
A D A D A Adim D A
Db Ab C E A
N.C
B   Bb   A Bb B Bb A Bb
I'm just...
Ab Eb Ebdim Eb Ab Eb Ebdim
Ab Eb F Bb (Ab Eb F#dim Fm)
B Bb A Bb B Bb A
Bb Eb  x3 Eb
	   F#7   Bm A D Db F# Bb Eb N.C
Let me go. Ah... No No...
		    Eb	      Bb
Oh mam mia mama mia mama mia...
Eb Ab D Gm Bb

4:06 two gtrs arr. for one
|-----|-------------------------------------------------------------------|
|-----|-------------------------------------------------------------------|
|-----|-------------------------------------------------------------------|
|-8---|-------------------------------------------------------------------|
|-8---|-6---------------3-5-6---6-------------3-------6--------------3-5-6|
|-6---|-----3---4---6---------------3---4---6---6---------3---4---6-------|

|--------------------|
|--------------------|
|--------------------|
|--------------------|
|-8-------------5----|
|-----5---6---8---8--|

|-------------------------------------------------------------------------|
|-------------------------------------------------------------------------|
|-------8--8----------------------6v-------------8--8--8------------------|
|-8-----8--8--8---8---6-8-6------------8----8----8--8--8--6---------------|
|-8-----6--6--8-------------8----------8----8----6--6--6--6---------------|
|-6-----6--6--6---------------9--------6----6-------------4----4--3--1----|

|-----------------|
|-----------------|
|-3---------------|
|-3---3h5--3------|
|-1-----------5-3-|
|-----------------|

|-------------------------------------------|
|-------------------------------------------|
|------3-----------------------3---------3--|
|------3--------3-5p3----------3---------3--|
|------1----4h5-------5p3------1---------1--|
|-1-----------------------1---------1-------|

|-----------------------------------------------------------------------|
|-----------------------------------------------------------------------|
|-----------------------------------------------------------------------|
|-----------------------------------------------------------------------|
|-6---------------3-5-6---6-------------3-------6---------------3-5-6---|
|-----3---4---6---------------3---4---6---6---------3---4---6-----------|

|---------------------------------------------------|
|---------------------------------------------------|
|---------------------------------------------------|
|-------------------------5-7-8---7-8-10---8-10-11--|
|-8---------------5-7-8-----------------------------|
|-----5---6---8-------------------------------------|

|-----------------------|-------------------------|
|-----------------------|-------------------------|
|-------------6---6-8-9-|-------------------------|
|-------6-7-9---9-------|-------------------6-8-8-|
|-6-7-9-----------------|---------6-8-9-8-9-------|
|-----------------------|-8-6-8-9-----------------|

|----------------------------------|
|----------------------------------|
|----------------------------------|
|------------------------------8---|
|-----------------8----8-10-11-8---|
|-10-8-10-8-10-11---11---------6---|

4:54
|-------3-6-|---------6-|----------------|
|-x---4-----|-------6---|--------8-b13v--|
|---3-------|-7---7-----|-8----8---------|
|-----------|---8-------|---10-----------|
|-6---------|-5---------|-4--------------|  - two gtrs arr for one
|-----------|-----------|----------------|

three gtrs arr. for one                                         5'9"
|------------------------|              |------------------------------|
|-8----8----8~9----9-8---|  -right   /->|-6---8h9p9-----8-11-10___\3---|
|-7----8v---7-----10-8---|  -left---/   |-7---8h10p8---10-12-11___\8---|
|------------------------|              |------------------------------|
|-2----3----2------5-3---|  -two gtrs-->|-1--------6----------5--------|
|------------------------|              |------------------------------|

5:10
|-//15-14---15-17-17b18v__\8--8/10\6--/8--8/10\6----|
|-----------17-19-19b20v__\9--9/11\8---8----11\8----|
|-//15-14-------------------------------------------|
|---------------------------------------------------|
|---------------------------------------------------|
|---------------------------------------------------|

Outro:
Cm Gm Cm Gm
Cm Abm Bb11(x11111) Eb

5:33 right          left     /finger picked/
|------------------|-----------------------|
|-11\9---9\8---8v--|-8\5-------------------|
|------------------|-------5\3__\2__/10vv--|
|------------------|-----------------------|
|------------------|-----------------------|
|------------------|-----------------------|

Bb F Abdim Gm7 F

God Save The Queen
------------------
First line by Pinter Denes

|-------------2-----3-5---7---7---8---7-----5-----5---3---2---3----|
|-8---8--10---3-----2-3---8---8---8---8-----7-8---5---3---1---3----|
|-7---9---9---2-----2-2---7---9---9---7-----5-9---5---4---2---4----|
|-9---9--10---0-----2-4-----------------------9-------0---0--------|
|10---7------------------10---7-------5-----6-7---3----------------|
|---------8-----------------------8---------------------------3----|

e-------------------------------3-3-3-3--2-3--2-2-2-2--3-2-
B-------------------------------3-3-3-3--3-3--1-1-1-1--3-1-
G-0h2p0h2-2h4p2h4-4h5p4h5-5h7p5-0-0-0-0--2-0--2-2-2-2--0-2-
D-----------------------------------0----0----0-----0----0-
A---------------------------------2---------------0--------
E-------------------------------3-----3----3----2------3---

e-3--0-3-2-0--3---0-3---0-----3--2--0--2--0-----3-------0-------3-
B-3--1-3-3-3--3---1-3---1--1--3--3--1--3--1-----3-------1-------3-
G-0--0-4-2-0--0---2-0---0-----0--2--0--2--0-----0-------0-------0-
D-0--2-5---2--0---2-0---2-----0--0--2--0--2p0h2-0-------2-------0-
A----0-5---2------0-2---3-----------3-----3-------3-2-----------2-
E-3----3-2-0--3---------------------------------3-----5-3-2-0-2-3-

Yotam Shkedy
yshkedy@ort.org.il
     
Добавлено: 16.11.2013
Другие материалы по этой песне:
  • Аккорды и текст

Страница создана 16.11.2013
http://primanota.ru/queen/night-at-the-opera-album-chords.htm
Привет, Гость.
Предлагаем пройти революционный курс по гитаре.
Подарок от PrimaNota.Ru, забирай!