PrimaNota.ru - самый крупный в мире бесплатный архив песенных текстов, аккордов, табулатур и нот


Queen - ii album - таба, видео

Регистрация Запомнить меня
Войти через:  Facebook Google Twitter Vk Yandex Mail.ru

Queen - ii album - таба, видео

Печатать
Просмотров: 305
Новый альбом группы 'Черный Кузнец' по культовому сериалу 'Сверхъестественное'!

Date: Mon, 31 Dec 2001 00:07:42 +0200
From: Yotam  Kurgan  Shkedy 
Subject: q/queen/queen_ii_album.tab
	Queen - Queen II
	----------------
This is the complete tab of Queen II. Some of the 
tabs aren't my own, and I 
mentioned it in the songs. Those w/o credits are my 
own. For comments, 
correction, etc. e-mail me at: yshkedy@ort.org.il

	Yotam Kurgan Shkedy

Procession
----------
Transcribed by Pinter Denes

Channel 1 and 2 mean left and right stereo channels.
    Channel 1
E-|-3-5-6-6-|-3-5-6-5-6-5-3---3-------5---1---1---1-- -1---3-0-1-0---------|
B-|-3-7-8-8-|-5-----6-6---6-5-3-------7---3-2-3---3- 2-3---3-1-1---3---1-3-|
G-|-3-7-7-7-|-5-----5-7---5---5-4-----7---2---2---3- 2-3---4-0-2---5-4-2-0-|
D-|---------|---------------------7-5-----------------------------5-3-2-0-|
A-|---------|-------------------------------------------------------------|
E-|---------|-------------------------------------------------------------|
  |                                                                       |
  | Channel 2        fade in/fade out volume control                      |
E-|-----------------------------------------------------------------------|
B-|-----------------------------------------------------------------------|
G-|-----------------------------------------------------------------------|
D-|-----------------------------------0---------0-------------------------|
A-|-------------------------------------0---------1-------2-3---------0---|
D-|---------------------------------------0-------------------3---5-----5-|

    Channel 2
E-|-7-8-10-10-10----|-12-----13----15-15---|-12-14-15-15------------------|
B-|-8-8-10-12-12----|-15-13--15----17-17---|-13-15-17-17------------------|
G-|-7-9-11-12-12----|-12-----17-16-17-17---|-14-16-17-17------------------|
D-|-----------------|----------------------|------------------------------|
A-|-----------------|----------------------|------------------------------|
E-|-----------------|----------------------|------------------------------|
  |                                                                       |
  | Channel 1        fade in/fade out volume control                      |
E-|-----------|---------------------|-3------------------|-0--------------|
B-|-----------|-3-3-3-1-------------|-3-5-3-1------------|-3-1-1----------|
G-|-----------|-2-4-0-0-------------|-4-5-4-2------------|-4-2-2----------|
D-|-----------|-4-5-3-2-------------|-5-5-5-2------------|---2-2----------|
A-|-----------|-5-5-5-3-------------|---3-2-0------------|---0-0----------|
D-|-----------|---------------------|--------------------|-2--------------|
                                                                               
    Channel 2
E-|-12-14-15-15-17-19-19-20-22-22-----------------------------------------|
B-|-13-15-17-17-19-20-20-22-24-22-----------------------------------------|
G-|-12-14-16-17-19-21-19-21-23-23-----------------------------------------|
D-|-----------------------------------------------------------------------|
A-|-----------------------------------------------------------------------|
E-|-----------------------------------------------------------------------|
  |                                                                       |
  |  Channel 1         fade in/fade out volume control                    |
E-|-----------------------------------------------------------------------|
B-|-----------------------------------------------------------------------|
G-|-------------------12-12-12-11-----------------------------------------|
D-|-------------------12-12-12-12-----------------------------------------|
A-|-0-----------------14-10-10-12-----------------------------------------|
D-|-----------2--------5--------0-----------------------------------------|

Father To Son
-------------

Intro:
	     Riff A-------------------------------------------------|
	     |G		  F	      Eb
e---------|-----------|-----------|----------|-----------------------|
B-3-------|---3-------|---3-------|---3-1----|-----------------------|
G---2-0---|-----2-0---|-----2-----|-------0--|---7777-7777-7777-7777-|
D-------0-|x8-------0-|x4-----3-0-|x4------1-|x4-7777-7777-7777-7777-|
A---------|-----------|-----------|----------|---5555-5555-5555-5555-|
E---------|-----------|-----------|----------|-----------------------|

Verse:
C
A word...
D
From father...
G  Bm/F#	Em
	Hear...
C
D
G Bm/F# E

Chorus:
G C Am D7
Joyful...

Verse II (Same as before)
Chorus (Same as before)

Riff A
			F
Won't you hear as sing...
		Ab
Now hand it on...
E		  D A x4
But I've heard...
 2:25
e-------------------|
B-------------------|
G-------------------|
D-----------------7-|
A-------5-7-------7-|
E-5-6-7-----6-5-0-5-|

Solo:
  E   G  E    G   E   G    D  A
e--------------------------5--5-|
B--------------------------7--5-|
G--------------------------7--6-|
D---4-5-----4-5-----4-5----7--7-|Guitar I repeats this throughout the solo.
A-7-------7-------7--------5--7-|Guitar II-it's more than I can figure out.
E-----------------------------5-|
In the middle and in the end of the solo there is a break:
E D C

Verse III

Outro:
G
sing...
C   G   D	Em	  A(sus4) A
But the air you breathe I live to give you
C
Father...
Am	  G
Father...

G	C Am G xn
Joy...
Kings...

White Queen (As It Began)
-------------------------
transcribed by Pinter Denes

three guitars
|-19---|-19tr17--|-17tr15--|-15tr14--|
|-15---|-15------|-15tr12--|-12tr10--|
|-12---|-12tr11--|-11tr9---|--9tr7---|
|------|---------|---------|---------|
|------|---------|---------|---------|
|------|-left----|-right---|-left----|

acoustic guitar:
|-------------0------2---|-3-2----2---|----------0-|----------0-|---2----|
|---------3---------3----|-3-3----3---|-0-3----3-0-|----------0-|-0-3----|
|-------0----------2-----|--------2---|-0-2----2-0-|--------2-0-|-0-2----|
|-----0-----------0------|-0-0----0-2-|-0-0----0---|-5----2-2-|-0------|
|-0h2--------------------|----------2-|------------|-5----2-2-|-2------|
|------------------------|----------0-|------------|-3----------|--------|
       
|------------------------------------------------------------------|----|
|------1---0-----------1---0-------------------------1-------------|----|
|--------------2---------------2-------2---2---2-------4-------2---|-0/-|
|----2---2---2---2---2---2---2---2---2---0-------1-------2---2---2-|-/0-|
|--0-----------------------------------------3---------------------|----|
|------------------3---------------1---------------1-------0-------| 2X |

|-----------------0-------------5-----5-----------------------------------|
|-------------0---1---3-------5-----5---5-----3-------1-------3-----------|
|-----2-----------0---0-----5---------------2---2-----------2---2-----2...|
|---2---2---0---0-2---0---7---------------0---------2---2-0---------2-----|
|-0---------------3---2-----------7---------------0---------------0-------|
|---------3---------------------------------------------------------------|

two gtrs arr for one
|-3--2-----2--0-----3--2-----0--0-----3--2-----0--0-----3--2---|
|-3--3-----3--0-----3--3-----0--0-----3--3-----0--0-----3--3---|
|-4--2-----2--0-----4--2-----2--0-----4--2-----2--0-----4--2---|
|-5--0-----0--2-----5--0-----2--2-----5--0-----4--2-----5--0---|
|----------------------------------------------0--2------------|
|----------------------------------------------0--0------------|
acoustic guitar:
|-----------------------------------------------------------------|----|
|-----1---0-----------1---0---------------0---------1-------------|----|
|-------------2---------------2-------2-------2-------4-------2---|-0/-|
|---2---2---2---2---2---2---2---2---2---0-------1-------2---2---2-|-/0-|
|-0-----------------------------------------3---------------------|----|
|-----------------3---------------1---------------1-------0-------| 2X |

  Am    Dm/E  A7  Dm      F7       B B/a Gm Gm7 Esus4 E
|-------------0-------1-------1-----|
|---------3---2---------------------|
|-2---2---2-----2---2---2---2---2---|
|---2---2---2-----0-------1---------|
|-0-------0-------------------------|
|-----------------------------------|

acoustic guitar behind the solo
|------------------|------------------|-----------------|-------------0---|
|----0h1------0----|-----0h1------0---|-----1-------0---|-----1-----------|
|-2-----2---2--2-2-|--------2---2--22-|---2---2---2--222|---2---2---2---2-|
|---2------2-2--2--|---2-----2--------|-----------------|-1-------2-------|
|---------0--------|------------------|-----------------|-----------------|
|------------------|-3--------3-------|-1-------1-------|-----------------|

acoustic solo
|--------------------------------------------------------------|
|--------------------------------------------------------------|
|--------------------------------------------------------------|
|-7----11r9-7-7-7-7vvvv---10r9-7-9-10-12p10-9-10-9hp---9-7-----|
|----------------------------------------------------------7v--|
|--------------------------------------------------------------|

|-----------------------------------------------------------|
|-----------------------------------------___---------------|
|-7-b8-b9-9r7---7-5hp---4-5-4hp---5p4-5-7-9r7p5---7-5-7/9---|
|-----------------------------------------------------------|
|-----------------------------------------------------------|
|-----------------------------------------------------------|

|------------------------------------___________-------___________-------|
|---------8---8-10-8/10---10/12---12-12h13p12p10-12-13-12h13p12p10-12-10-|
|-9/11-11----------------------------------------------------------------|
|------------------------------------------------------------------------|
|------------------------------------------------------------------------|
|------------------------------------------------------------------------|

|-----------------------------------------------------------------|
|-------------------x---------------------------------------------|
|-9p7(5)-7p5-7p5v--x---5-7-8-8p7-8p7-8p7p5-7p54-5---4-2-4-0-2...|
|-----------------------------------------------------------------|
|-----------------------------------------------------------------|
|-----------------------------------------------------------------|

acoustic guitar 2
|12r10p8-7-8-7h8p7--------------------------------------------------------|
|------------------10-----------------------------------------------------|
|---------------------9-7---------------5-7-5-5-7b9---b9-b9-b9-b9-b9r7-5-7|
|-------------------------10p9-10-5-7-------------------------------------|
|-------------------------------------------------------------------------|
|-------------------------------------------------------------------------|

|------------------------------------------------------------------------|
|------------------------------------------------------------------------|
|--7p5-5-5-5-54-4-4-42---2---5r4p2-4p2-4-4b-b5-b5-b5-b5-b5r4p2-5r4p2---|
|------------------------------------------------------------------------|
|------------------------------------------------------------------------|
|------------------------------------------------------------------------|

|-----------------------------------------------------|
|-_____---_____-----_____-------_____-------_____-----|
|-5r4p2-4-5r4p2-4-5-4b5r4-2-4-5-4b5r4-2-4-5-4r5r4p2---|
|-----------------------------------------------------|
|-----------------------------------------------------|
|-----------------------------------------------------|

G D   D E x2
two guitars
|---------------------------------| |------------------------------------|
|-10---10---10-8-7--3-------------| |------------------------------10-12-|
|-11---11---11-7-2--2---2-4--2-4--| |-------------------------11-12------|
|-----------------------4-2--1----| |----------------11-13-14------------|
|---------------------------------| |----------12-14---------------------|
|------------------------------0--| |-12-14-15---------------------------|

|---------------------------12b13---b13__r12p10-12v---10--|
|-12b13v__r12p10-12vvv-10---------------------------------|
|---------------------------------------------------------|
|---------------------------------------------------------|
|---------------------------------------------------------|
|---------------------------------------------------------|

|---------------------------------------------------------------|
|-18b20v--17-15------------17b18--r17p15h17--18-17h18hp-15-17v--|
|---------------17-15vv-----------------------------------------|
|---------------------------------------------------------------|
|---------------------------------------------------------------|
|---------------------------------------------------------------|

E  Am      G C C/B Am
My godess...
D    Am D A
It's..

acoustic guitar:
|2--0--------------------------0---3----3p2------0-----------------------0|
|3--0-----0--0----------3---3--0---3--3----3-----0--------3------------0--|
|2--0-----0--0-------0--2------0---0--------2-2--0---0----2----------1----|
|0--2-----4--4p2-0---0--0---0--2---0--0-------0--2---0-0--0--------2------|
|---2--------------2-2-------------------------------5------4---2--------|
|---0----------------3--2----------------------------3-2-------0----------|

Some Day One Day
----------------

A riff - 02225 x4 02224 02222 02224

Intro:
A riff - a few times and then a second guitar adds the intro riff:
				  ------- ----
				  |1.     |2.
e---------------------------------|-------|---|
B---------------------------------|-------|---|
G-----------------4-6p4------4p2--|------.|-2-|
D----------4-5-7--------7--4-----4|-2---2.|---|
A-4-5-7--7------------------------|-------|---|
E---------------------------------|-------|---|

Verse:
A G D A x2
   E    G Bm  
No star...
D       C#m  E7   A G A D
   ...fear.  But...
 0:50,1:30
e---------------------------------------
B---------------------------------------
G-------------------------7~-----7-6~4~-
D-----------------7-9~------------------
A-7~--7-9-10~--10-----------------------
E---------------------------------------
  star..light....way....cloud...fear

A riff x2

Verse 2: the same

Solo:
 1:52
e--------------------------------------------------------------------------
B-------------------------------------------------------15-19~-19-19-15-17~
G---------------4-6p4------4p2----------------18~-18-16--------------------
D---------4-5-7-------7--4-----4-2---16-18-19------------------------------
A4-5-7--7------------------------------------------------------------------
E--------------------------------------------------------------------------

e-----------------------------------------------------------------------
B-17p15----15-17-15br~-----15-17-17p15---------*-----17----15--15br-----
G-------18--------------18-------------18-14~------------------------14-
D-----------------------------------------------------------------------
A-----------------------------------------------------------------------
E-----------------------------------------------------------------------
* At this point there are a few guitars making different sounds.
I don't/can't tab it so I'll leave it for someone else (e.g. Pinter Denes)

This part is over the first line of the 3rd verse:
 2:25
e-------------------------------------------------
B-17b19r17-----15b17r15------------14-15b17r15-14-
G----------14-----------12---14-16----------------
D-------------------------------------------------
A-------------------------------------------------
E-------------------------------------------------

Outro:
 3:06
e------------------------------------------------------
B------------------------------------------------------
G-9~~11-12-11-9h11p9--7-6h7p6h9------------------------
D-------------------------------9--7-9br-7--9br9-7---7-
A--------------------------------------------------9---
E------------------------------------------------------

e---------------12-14b~12--14br-12-----------------12br----------
B-------11-12br---------------------15-14-15--14-15------10-12-14-
G-6h7h9-----------------------------------------------------------
D-----------------------------------------------------------------
A-----------------------------------------------------------------
E-----------------------------------------------------------------

e-------------------------------14b15b17r-12---15-15p14p12----
B----12-14-12-----------12br-14----------------------------14-
G-14----------h14----14---------------------------------------
D-----------------14------------------------------------------
A-------------------------------------------------------------
E-------------------------------------------------------------

e-----------17-19b21brbr19b21r19-17---b22-r21--17-19-21-19--17-19b~r----
B-14-17-19-----------------------------------------------------------17-
G-----------------------------------------------------------------------
D-----------------------------------------------------------------------
A-----------------------------------------------------------------------
E-----------------------------------------------------------------------
Continues a bit more and fades.

Note: There are places in the tab in which the bends and releases are not
all that clear. Just wobble freely or listen and you could get it right.

The Loser In The End
--------------------
Roger Taylor shows again that there are 3 other better songwriter in
this excellent band.

 - Use tremolo bar to slide down
^^ - Use tremolo bar

Verse:
A - Difficult, right

Chorus:
A D A G A (One chord per line)

Bridge ('So listen mothers...'):
D G x3
C A
D G C D

Riffs:
 0:29	 0:38		     	 0:45	  	  0:50 (Left)
e-------|-----------------------|----------------|------------------|
B-------|-(14)b16----r14p12-----|--(17)b19--r17-|------------------|
G-------|-------------------14-|----------------|------------------|
D-/7~~-|-----------------------|----------------|-10p9-------------|
A-------|-----------------------|----------------|------10~------10-|
E-------|-----------------------|----------------|---------10h12----|
 0:54				       1:04			  1:09
e-------------------------------------|--------------------------|--------|
B-------------------------12/14-------|--------------------------|--Slam--|
G-11/12-14-14---------12-------14p12-|-17~b20r-16~--------------|--a-----|
D----------------12h14----------------|-------------19p17-----19-|--door--|
A-------------------------------------|-------------------h19----|--------|
E-------------------------------------|--------------------------|--------|
 1:15	      1:18					      1:33
e-----------|----------------------------------------------|---------------
B-----------|----------------------------------------------|---------------
G-/9~~7-----|-/9~~7----------------------------------------|-12------------
D-------9-7-|-------9-7^^---777-7-7--77-7--7-7--b10-r9-7^-|-12------------
A-----------|----------------------------------------------|-10--(9)b11r7-
E-----------|----------------------------------------------|---------------
 1:44 (Solo)
e---------------------------------------------------------------------
B---------------------------------------------------------------------
G-b9r7b9--9-8-9-8-9~~-9-8-9-8-9~~-9b7--7-7-7-7p5----7/9-7-7-7-7p5----
D-------------------------------------------------7----------------7~~
A---------------------------------------------------------------------
E---------------------------------------------------------------------

e-----------------------------------|
B-----8/10-10-108~~----------------|
G-9r7----------------9r7-7p5--------|
D----------------------------7p5~~~-|
A-----------------------------------|
E-----------------------------------|
 2:11	    2:19, 2:32		 2:33		  
e----------|--------------------|----------------|
B----------|-15/17~~-15p13------|----------------|
G-5/7~~5-|---------------14~-|-14p12-------14-|
D----------|--------------------|-------14-12----|
A----------|--------------------|----------------|
E----------|--------------------|----------------|
 3:00 (Outro)
e----------------------------------------------------------------
B----------------------------------------------------------------
G----------------------------------------------------------------
D-17p16-14-------/19-17-19--/19-17-------------------------------
A----------17-15-------------------15--17-15--------12-15-12-12~~
E--------------------------------------------13--15--------------

e--------------------------------------------------------------------------
B-----------------------------------------------------12b14~r~--14-12-14-14
G------------------------------12----12----(14)b17r14~-------14------------
D-12----------12-----------14~~----14----14--------------------------------
A---15-12-15----15-12-15---------------------------------------------------
E--------------------------------------------------------------------------

e-15/17~~--15-14-15-12-----------------------------------------------------
B----------------------14-12-15b17r15b17r15-13-(12)b14r12-12b14r12b14r12b14
G--------------------------------------------------------------------------
D--------------------------------------------------------------------------
A--------------------------------------------------------------------------
E--------------------------------------------------------------------------

e--------------------------------------------------------------------------
B-/20-b22r20-17----17-20-17-20-22-20-22-20-22--(17)b20r17------------------
G---------------19----------------------------------------//17p15----17--
D------------------------------------------------------------*----17-------
A--------------------------------------------------------------------------
E--------------------------------------------------------------------------
* - Press the note with the tremolo bar bent down, pick and release the bar

e------------------------------------------------------------------------..
B------------------------------------------------------------------------..
G-(15)b17r15-14^^^-------------------------------------------------------..
D------------------14^^^------------(13)b14r13-------------------1312---..
A------------------------(14)b15r14------------15----------12-15-------15..
E-------------------------------------------------12-14-15---------------..
Enough with the slaughtering 

Ogre Battle
-----------
Intro:
0:33
A
 0:35
e---------------------------------|---------|----------|This is actully the
B---------------------------------|---------|----------|next part played
G---------------------------------|---------|----------|backwords
D-2-3-5-5-0-2-3-3-----------------|---------|x4--------|x4
A-----------------2-3-5-5-0-2-3-3-|---------|----------|
E---------------------------------|-5-5-0-3-|---3-3-0-2|
Riff A:
--------------------------|----------|----------|---------------------
--------------------------|----------|----------|---------------------
--------------------------|x4--------|----------|----------------------Am D
--------------------------|*---------|x4--------|x4----------3320-5532
--------------------------|----------|----------|--3320-5530----------
-5--3-5--3-5-5-3-5--3-5-0-|--3-3-2-0-|--5-5-3-0-|---------------------
* - The first two times are still the backwords part

Verse:
G Bm/F# Asus2 Em
G Em C D7
G Bm/F# Asus2 Em
G Em

Chorus:
 1:18
  Em		D     Am
		    	Come tonight.(2nd time)      D7
e----------------------|---------------|---------------5--
B----------------------|---------------|---------------7--
G----------------------|---------------|---------------5--
D----------------------|---------------|x3-7-5---------7--
A-3-2-----------5------|-3-2-0-3-0-5-0-|-------7-5-----5--
E-----5-3-2-3-5--------|---------------|-----------8-7----

Verse II
Chorus
Riff A

Bridge:
A
The ogre man...
Bm
Keep a look out
B
The ogre man...

The solo is on D with A LOT of noise in the background. Just fool around,
and try not to make the neighbors too angry.
			 Am
The ogre man are going home... 
Dm
Buggle blow...
Dm E7 Am Dm
Am
You can...
Am   Dm AmDm Em
Come to ogre battle

Riff A with Em instead of D in the end.

The Fairy Feller's Master Stroke
--------------------------------
Whoever is interested, I have an image file of the picture which was the
basis of this surreal song.

Intro:
Em Em Em Am x8
D    C G
D    (G) D
C G Am

Am  		Am
The fairy folks...
Am  		B7
To see...
Em A7 D G
C
	E-5-5-5-7-7-7
Em Em Em Am x4

C G/B Am
Ploughman...
C G/B Am
Dm 	    A7
0:41
G-------2-3p2-
D-0-2-3-------
F   			C7 F
Pedagogue quinting...
F Am Dm 
Am Dm
	E-1-1-1-3-3-3-

C G/B Am
Tatterdemalion...
C G/B Am
Dm A7
F C7
Fairy Dandy...
F Bb6
F Am Dm
   Am
...yellow (can we see...
   Dm
...fellow

E-1-1-1-3-3-3-

Solo:
Am  Bm  C C
Bb F x4
 1:29 (Left guitar)
			  |--------- |--------- |----------
 D			  |1.	     |2.	|3.
e-------------------------|----------|----------|----------
B-1110--------------------|11101111--|----------|----------
G-----11101110------------|----------|10p9--9---|----------
D-------------12111211----|----------|----12----|14p121111-
A---------------------1312|----------|----------|----------
E-------------------------|----------|----------|----------
  D	       C	   B7
e--------------------------------------------There's another guitar
B--------------------------------------------here, I know. But I can't
G--------------------------------------------make it out. Any ideas
D--------------------------------------------welcomed.
A-5--5-5--5-5--3--3-3--3-3--2--2-2--2-2-2/14-
E--------------------------------------------

Am  	B7
Soldier...
Em D C
	E-5-5-5-7-7-7
Em		      Am
D-2----2-----0-2-4-5----
A---2-----2-------------

C G/B Am
Tatterdemalion...
C G/B Am
Dm A7
F 	C7
Fairy Dandy...
F Bb6
F Am Dm
   Am
...yellow...e----------------------12-15-
	    B-13-13-13-13--1313-13-------
	    G-14-14-14-14--1414-14-------
	    D-14-14-14-14--1414-14-------

   Dm
...fellow

E-1-1-1-3-3-3-

    C G/B Am
The ostler...
C G/B Am
Dm Bb F

Nevermore
---------

Intro:
F   C7 F x4
Dm 
F   C7 F

|: F 	   Dm
...living...
   C     Fmaj (C) Bb F
...seas....
F     Dm Am
Please...
Bb F Bb F
G7 C7|1. F     C7 F|2.       A7 Dm    Bb Am    Dm
		    when you say
Bb
Nevermore
F    C7 F x4

The March Of The Black Queen
----------------------------
The 1:37 and 5:06 solos are Pinter Denes' work.
The rest... my own work.

Intro:
B7sus4   B7sus4   B7sus4   B7sus4   B7sus4 B7 B7 x3
 0:06
G-4~~--------4-4h5p4-4-

Em       Am7  Em x3
  Do you mean it
D G
G#dim (456464) Am
 0:36
D---7--7-6----5-5-4- B7 D F
A-7---------7------- 
 0:51		   0:53
   G		   B7
e--7-3-------------------------------------------------------
B------3------------12~---12-10---------11b12rbrb--11b12rbrb-
G--------4----------------------11-9-------------------------
D----------5-------------------------9-----------------------
A------------5-2---------------------------------------------
E----------------3-------------------------------------------

e------------------|--------------|-------------(22)b24r22~~~~
B-11b12-10---------|-----------12-|---------------------------
G----------11-9----|------9h11----|--------9h11---------------
D---------------9--|-9h13---------|x3-9h13--------------------
A------------------|--------------|---------------------------
E------------------|--------------|---------------------------
	G G E7 Am
You've never...
Am   D7
Let..time to choose.
G Bm Em (G)
Em   Am
Am  G#+(xx6554) C D/F# x2
Here..
F G C Bb F G
1'37
|------------------------------------------------------------------|
|--------------------------------------------------5---------------|
|-7-b9-7-b9-7-9r7-5--b9-7-9r7-5---9r7-5-7-6-7-6-7----7-5-----4-5---|
|--------------------------------------------------------7-7-------|
|------------------------------------------------------------------|
|------------------------------------------------------------------|
         ---3--- ---3---        ----4----
|----------------------------------------------------|
|-12b13-13r12p10-12p10---10--------------------------|
|---------------------12----12-10h12p10--10----------|
|--------------------------------------12---12-11-10-|
|----------------------------------------------------|
|----------------------------------------------------|

|---------------------------|
|---------------------------|
|---------------------------|
|-9----9--------------------|
|--------9------------------|
|------------10---11--6-7--|

Am G#+ C D/F# x2
F G C Bb F G
C	   G Am
Now I've...
 2:07
e-------------------------------------------------------------------------
B-15b17---r15-13--------------------12-12---12----------------------------
G----------------14--------------11------------14-12-11---12-11-----------
D-------------------15-12--12-13--------------------------------14-13-14--
A-------------------------------------------------------------------------
E-------------------------------------------------------------------------

---------------------------------------------------------------------------
------------12-12----------------------------------------------------------
---11-12-14--------14b---------------------------------------------------11
14---------------------14-12---------14-12---------14-12-----------------12
----------------------------16-14-12------16-14-12------16-14-12---------12
----------------------------------------------------------------15-14-12-10
  D
e---------------------
B---------------------
G-(9)b11-11-11-11r9-7-
D---------------------
A---------------------
E---------------------

F
 2:30
e----------------------------------------------------------------------
B-15b17-17r15-13-15-13-12-13-12----12----------------------------------
G-------------------------------14----14-12-14-12----12----------------
D-------------------------------------------------15----15-14-12-14-15-
A----------------------------------------------------------------------
E----------------------------------------------------------------------

15b17r15131513121312--12---------------------------------------------------
--------------------15--15131513121312--12---------------------------------
--------------------------------------14--14121412--12---------------------
--------------------------------------------------15--15131513121312-121315
--------------------------------------------------------------------15-----
---------------------------------------------------------------------------

F (and some noise) all the way to 3:00

  F 	Bb F Gm C7 F
A voice...	...angel
F 	 Am Dm A7
Remember...
Bb Am G7    C7
Love    and joy
Cm 	B+(xx5443) Eb(x65343) Am7-5(x31213) Bb
Every...
Eb    G7 	C
   A little...  joy
   F    Bb F Gm C7 F
In each...
    F    Am Dm 
But even...
A7    Dm    A7 Dm    A7
he'll bring a little love

A Dm C F

G Cm D-5-7-5^^^-3-5
Eb Cm G Am

Am
I reign...
G			Am
I've got the power...
   G	     Am
...bad boy...march of the black queen
 4:38	      4:41	   4:43
e------------|------------|-------------------|
B------------|-(8)b10r85-|-------------------|I know this last is quite
G-7b9^^^r7---|------------|-7br5-------------|correct but it's the best
D----------7-|------------|-------7-5---------|I can do and it's in the
A------------|------------|-----------8-5-----|general direction (sort of)
E------------|------------|---------------8-5-|
 4:50
e----|--------|----------
B----|--------|----------
G-2~~|-2~h5p2-|----2/5~--
D----|--------|x13-------
A----|--------|----------
E----|--------|----------
5:06
|--------------------------------------------------------|
|-8b10___- b10-b9-b10-b9-b10vv----b9-b10-b9-b10-b9-b10vv-|
|--------------------------------------------------------|
|--------------------------------------------------------|
|--------------------------------------------------------|
|--------------------------------------------------------|

|-------------------------------------------------------|
|-10r857-5----------------------------------------------|
|-------7-875-5------------------7-5b-------------------|
|------------7-757------5-5----57-7-----757575----------|
|---------------------57-7--------------------5353------|
|-------------------------------------------------535---|

		Am   G#+ C D/F# x2
walking true to style...
Am Dm G

 5:30	      5:40
e------------|-----------------------------------------------------
B-108-8/10--|-10-10-9-9-7-9--7--6h7-9--9b10r-7-9-5--7h9r7h9r7-5-5-
G------------|-----------------------------------------------------
D------------|-----------------------------------------------------
A------------|-----------------------------------------------------
E------------|-----------------------------------------------------

e--------12-11------------------------------
B---9-12-------11-12------------------------
G-9-------------------13-11h13r11h13r11-9-9-
D-------------------------------------------
A-------------------------------------------
E-------------------------------------------

Edim(012020) G
		Forget your...
C G Am
Dm Dsus2(x57755 or xx0230) Em
F G C
G7 Am
Dm Em F G C...into next song

Funny How Love Is
-----------------

On each chord line the last three chords are played one after the other,
one for each word, listen to get the rythem.

C F C F G C x2
D G D G A D x2
Em F#dim Gdim (F#dim Em)
F Bb F Bb C F
F Bb F	Bb F
G7
Repeat all 3 times (And no, I won't tab the little guitar you can 
barely hear from the second verse onward).

Seven Seas Of Rhye
------------------
The solo from 1:18 until 1:29 is Pinter Denes' work

Intro:
D G
0:09
e----15
B-/12--
Em A

Verse:
D G D G
D   G
G   D
Em A7 D
 0:37			 0:40;0:42 0:45		    0:54
e-----14----------------|---------|--------19---22-|----------------------
B-15~----15-12----12-15-|-15br-15-|-/20--b---------|-12b14r12-10----10----
G--------------14-------|---------|----------------|-------------11-------
D-----------------------|---------|----------------|-------------------12-
A-----------------------|---------|----------------|----------------------
E-----------------------|---------|----------------|----------------------

Chorus:
D C G
D C G
D Em F#m G F#m Em(9)...D

Solo:
 1:16
e-----------------------------
B-17b-------------------------
G-----19-17-16----------------
D--------------19-17-16-------
A-----------------------19-17-
E-----------------------------
 1:18
|---------------------------------------------------------------|
|-------------------------------21b23---r2221-18--------21b23---|
|----------------18--2018-----------------------20182018--------|
|--------18--20-------------20----------------------------------|
|18--20---------------------------------------------------------|
|---------------------------------------------------------------|

|---------------------------------------------------------------|
|-b23__r21p1821t23p21t23p21-------------------------------------|
|--------------------------20b22__r201820182022__r20p18--18br---|
|---------------------------------------------------------------|
|---------------------------------------------------------------|
|---------------------------------------------------------------|

|----------------21b23------18-------------------------19b21---|
|-------------------------21--2118-----------------------------|
|-20p18----18br-------------------21201820182018---20----------|
|------20---------------------------------------18-------------|
|--------------------------------------------------------------|
|--------------------------------------------------------------|
1:29 (with a lot of echos)
e-----------------------------
B-----------------------14-15-
G-----------------14-16-------
D-------11-12-14--------------
A-12-14-----------------------
E-----------------------------

Bridge:
G
Storm...
	  C    Em Am
I'll survive...
		Em C A7 D
I'll defy the laws...

Verse
 2:02
e----------------14-17-
B-------------15-------
G----------16----------
D----16-19-------------
A-17-------------------
E----------------------

Outro: D G xn
 2:09				2:25
e---------------------------...-----------17--15-14-------
B-------------10--8b10r8--7-...-15---17br-----------17-15-
G-10~--10b-7----------------...---------------------------
D---------------------------...---------------------------
A---------------------------...---------------------------
E---------------------------...---------------------------

I though about doing See What A Fool I've Been, 
but dropped the idea
about 1 minute into the song. So that's it 
Anyone who is brave enough to try and tab it out, 
I'll be happy to get
the tab and see how it went. Good Luck.Arial

Yotam Shkedy
yshkedy@ort.org.il

Добавлено: 02.01.2014
Другие материалы по этой песне:
  • Аккорды и текст

Страница создана 02.01.2014
http://primanota.ru/queen/ii-album-chords.htm
Привет, Гость.
Предлагаем пройти революционный курс по гитаре.
Подарок от PrimaNota.Ru, забирай!