PrimaNota.ru - самый крупный в мире бесплатный архив песенных текстов, аккордов, табулатур и нот


Queen - The hero live - таба, видео

Регистрация Запомнить меня
Войти через:  Facebook Google Twitter Vk Yandex Mail.ru

Queen - The hero live - таба, видео

Печатать
Просмотров: 195


Transcribed by Nguyen Kien

i'm not sure about this, I've just started transcribing this song but I only found the intro, and still need
the solo.
|----------------------------------------------------------|
|----------------------------------------------------------|
|----------------------------------------------------------|
|-7--------------------------------------------------------|
|-5---4-5--4-5--2--3-3-3-3-2-2-2-2-3-3-3-3-2-2-2-2-3-3-3-3-|
|----------------------------------------------------------|

|------------------------------------2--2-------2--2--5----|
|-------------------------------2-2--3--3--2-2--3--3--5----|
|----------------------0--1--2--2-2--2--2--2-2--2--2--5----|
|2-2-2-2-1-1-1-1-2--3-----------2-2--------2-2--------5----|
|-----------------------------------------------------7----|
|-----------------------------------------------------5----|

Добавлено: 23.11.2013
Другие материалы по этой песне:
  • Аккорды и текст

Страница создана 23.11.2013
http://primanota.ru/queen/hero-live-chords.htm
Привет, Гость.
Предлагаем пройти революционный курс по гитаре.
Подарок от PrimaNota.Ru, забирай!