PrimaNota.ru - самый крупный в мире бесплатный архив песенных текстов, аккордов, табулатур и нот


Queen - Fat Bottomed Girl - текст песни, бас-таба, видео

Регистрация Запомнить меня
Войти через:  Facebook Google Twitter Vk Yandex Mail.ru

Queen - Fat Bottomed Girl - текст песни, бас-таба, видео

Печатать
Просмотров: 173


Song:Fat bottomed girl
Author:queen

To play correctly this song you must have a 5-string bass
or drop the E-string to D.
Here you are the version for the 4-string dropped to D...

Intro vocals followed by guitar and drums...then
the bass arrives...

G---------------------------------------------------------------
D---------------------------------------------------------------
A---------------------------------------------------------------
D-0-x-12/--0-x-12/--0-x-12/--0-x-12/--0-x-12/--0-x-12/----------

G---------------------------------------------------------------
D---------------------------------------------------------------
A-0-x-12/--0-x-12/----------------------x-10/----x-10/----------
D-------------------0-x-12/--0-x-12/--5--------5----------------

G--------------------------
D--------------------------Let the last note ring...
A----------0-x-12/--5------
D-0-x-12/-----------0------

Chorus:
G---------------------------------------------------------------
D----------------------------------------------------5-5-5-5----
A-5-5-5-5--3-3--2-2------5-5-5-5--3-3-2-0-0--5-5-5-5------------
D-------------------3^0-----------------------------------------

G------------------------------------------------
D------------------------------------------------
A-5-5-----------5-5---------5-5-----------5------
D------7-7-7-7-------5-0-5-------7-7-7-7--0------

Before the verse play this that sound really good..:
G--5/7--- ------------------------------------------
D--5/7--- Listen for the timing and let it ring...--
A---------------------------------------------------
D----0----------------------------------------------

Verse
G--------------------------------------------------------------
D-------------------------------------------------5-5-5-5------
A-----5-5-5-5------5-5-5-5-5-----------5---5-5-5---------------
D-0-0----------3^0------------7-7-7-7----0---------------------

G-------------------7-------
D----------7-7-7-7--7------- Then play chorus again...
A-5-5-5-5-----------5-------
E---------------------------

Outro:

G--------------------------------------------------------------
D--------------------------------------------------------------
A-5-5-5-3-2-0------5-5-5-3/5-5-5/17/--5-5-5-3-2-0------5-5-5...
D-------------3^0---------------------------------3^0----------

FADE OUT...

I hope you'll enjoy this tab too...


-Niclarke-










Добавлено: 20.02.2014
Другие материалы по этой песне:
  • Аккорды и текст

Страница создана 25.05.2012
http://primanota.ru/queen/fat-bottomed-girl-chords.htm
Привет, Гость.
Предлагаем пройти революционный курс по гитаре.
Подарок от PrimaNota.Ru, забирай!