PrimaNota.ru - самый крупный в мире бесплатный архив песенных текстов, аккордов, табулатур и нот


Quasi - Please Do - текст песни, таба, видео

Регистрация Запомнить меня
Войти через:  Facebook Google Twitter Vk Yandex Mail.ru

Quasi - Please Do - текст песни, таба, видео

Печатать
Просмотров: 159
Credit goes to this site.
http://roxichord.tripod.com/roxichord.html
I'm uploading them all, 
FOR GREAT JUSTICE.

PLEASE DO
by Sam Coomes

Intro:

e|-3-2-------1-0-------|---0--------0-----|
B|---------------------|-2----2--0-1----1-|
G|-----0---0-----0---0-|------------------|  x 2
D|-------0---------0---|------------------|
A|---------------------|-0---0---0----0---|
E|-3-2-------1-0-------|------------------|

e|-3-2-------1-0-------|---0--------0--------0--------0-----|---0------------------|
B|---------------------|-1-----1--2-----2--3-----3--2-----2-|-1-----1------1-------|
G|-----0---0-----0---0-|------------------------------------|----------------0/2\0-|
D|-------0---------0---|------------------------------------|----------0/2---------|
A|---------------------|-3---3----4---4----5---5----4---4---|-3---3----------------|
E|-3-2-------1-0-------|------------------------------------|----------------------|


Bridge:

Get the rhythm from the record, these are the chords. The second time round 
the Gmaj7 becomes a G7 ie play a 1 (in the brackets) instead of 2

     (1)
e|-3--2-----7--8-----5-7-------7-5--|
B|-0--0-----0--0-----5-5-8-----7-7--|
G|-0--0----/7--7-----6-6-6-----7-7--|
D|-0--0----/6--6-----7-7-7-----0-0--|
A|-2--2----/7--7-----0-0-0----------|
E|-3--3-----0--0--------------------|



    G     Gmaj7      Em    E7
You never cried, you never froze
    A       Am        D      D7
And yet how well your garden grows - 
    G        Gmaj7  Em     E7
You reap the fruit another sows;
  A      Am  D     D7           back to Bridge
I guess that works out well for you

Suffering has served you well -
Its common, yet it somehow sells
So sing your little song of hell and sell

Hollow hopes and empty dreams
And blind pursuit of worthless schemes - 
Thats all there is to life it seems
Unless you prove me wrong


Bridge again:
Please do

G      B7    F#m   
Please do
Am     C 
Please do    
G    E7    Eb    G
Pleeeease  dooooooo
Добавлено: 19.10.2013
Другие материалы по этой песне:
  • Аккорды и текст

Страница создана 15.10.2013
http://primanota.ru/quasi/please-do-chords.htm
Привет, Гость.
Предлагаем пройти революционный курс по гитаре.
Подарок от PrimaNota.Ru, забирай!