PrimaNota.ru - самый крупный в мире бесплатный архив песенных текстов, аккордов, табулатур и нот


Quasi - Chocolate Rabbit - таба, видео

Регистрация Запомнить меня
Войти через:  Facebook Google Twitter Vk Yandex Mail.ru

Quasi - Chocolate Rabbit - таба, видео

Печатать
Просмотров: 169
tune down a full step.

Intro:
   Faddb5 F      Faddb5 F     G    C    G    C    G    C
e|-1------1------1------1-----3----3----3----3----3----3-|
B|-0------1------0------1-----3--565----3--565----3--565-|
G|-2------2------2------2-----4----5----4----5----4----5-|
D|-3------3------3------3-----5----5----5----5----5----5-|
A|-3------3------3------3-----5----3----5----3----5----3-|
E|-1------1------1------1-----3----x----3----x----3----x-| x3

then

  Faddb5  F      Faddb5 F     
e|-1------1------1------1-----|
B|-0------1------0------1-----|
G|-2------2------2------2-----|
D|-3------3------3------3-----|
A|-3------3------3------3-----|
E|-1------1------1------1-----|

   F                              C                       B 
   Back the fuck away from it and leave it where it lies
Bb                           A              Bb              
   How many stabbings can it take before it dies
F                           C                   B 
   I got the message like a bullet to the head
Bb                               A                   Bb
   No wishful thinking now could help bring back the dead

Faddb5 F Faddb5 F G C G C G C x2

Faddb5 F Faddb5

I never noticed that you turned into a ghost
You couldn't help me when I need you the most
You made your choice and you would not change your course
I got a lesson how to flog a dying horse

Faddb5 F Faddb5 F

   E              F         C      riff1
On Easter I got a chocolate rabbit
E             F    C   riff2
Biggest one I ever had
Bb           C               A               Bb         
You'll never know til you've bitten of their heads
             G              C             Bb    F
That they're hollow and the chocolate's baaaaaaaad

riff1                   riff2 
e|---------------------|--8-------------------|
B|--------12-10-12-13\-|----10----------------|
G|-9-10-12-------------|-------10--10-9-10-9\-|
D|---------------------|----------------------|
A|---------------------|----------------------|
E|---------------------|----------------------|

Добавлено: 23.08.2013
Другие материалы по этой песне:
  • Аккорды и текст

Страница создана 23.08.2013
http://primanota.ru/quasi/chocolate-rabbit-chords.htm
Привет, Гость.
Предлагаем пройти революционный курс по гитаре.
Подарок от PrimaNota.Ru, забирай!