PrimaNota.ru - самый крупный в мире бесплатный архив песенных текстов, аккордов, табулатур и нот


Quartiere Coffee - Sweet Aroma - таба, видео

Регистрация Запомнить меня
Войти через:  Facebook Google Twitter Vk Yandex Mail.ru

Quartiere Coffee - Sweet Aroma - таба, видео

Печатать
Просмотров: 48
-------------------------------------------------------------------------------
                             SWEET AROMA - Quartiere Coffee
-------------------------------------------------------------------------------
Tabbed by: Nico Lorenz
E-mail: nico.lorenz@hotmail.de

Tuning: Standard Tuning

Intro:
                                                              Riff
e|---------------------------------------------------------------------------|
B|---------------------------------------------------------------------------|
G|----9-----9-----9------9------9---7-------------------------9---7----------|
D|-------7----7-------10---10--------------10--7-----------7---------10------|
A|---------------------------------------------------------------------------|
E|-----------------------------------------------17--------------------------|

Chorus 2x:

Just do your favorite reggae strum on this:

Play Riff before every chord change if you like 

     Am           Dm                          Em                  Am                Riff
e|---5-------------5---------------------------7-------------------5--------------------------|
B|---5-------------6---------------------------8-------------------5--------------------------|
G|---5-------------7---------------------------9-------------------5----------------9--7------|
D|---7-------------7---------------------------9-------------------7--------------7------10---|
A|---7-------------5---------------------------7-------------------7--------------------------|
E|---5-------------X---------------------------X-------------------5---------17---------------|
   Sweet3x Aroma , Sweet3x Sensimilla, you can bun5x ,  bun inna di chalice

Am
   Smoke marijuana, me love di plant,
Dm        
   smoke sensimilla under di sun,
Em
   di ganja farmer a mystic man,
Am
   me smell it round di corner.
Am
   You must believe, try to plant di seed,
Dm
   and inna ya garden you can smell di weed,
Em
   look after it, every day of di week,
Am
   you will become a real farmer.

Riff

Sweet sweet sweet aroma,
Sweet sweet sweet sensimilla
You can burn burn burn burn burn
burn inna di chalice.

We grow it in Italy, in Switzerland,
smoke in Australia and in Japan,
in every nation, in every land,
it's banned for every government.
Put it on a rizzla we bilt a spliff,
the king smoke it, and also the queen,
before a coffee before go in to sleep,
you can smell it sweet aroma.

Sweet sweet sweet aroma,
Sweet sweet sweet sensimilla
You can burn burn burn burn burn
burn inna di chalice.

Smoke marijuana, me love di plant,
smoke sensimilla under di sun,
di ganja farmer a mystic man,
me smell it round di corner.
We grow it in Italy, in Switzerland,
smoke in Australia and in Japan,
in every nation, in every land,
it's banned for every government.

Melodies:

For Playing along to the Chorus:

e|---------------------------------------------------------------------------|
B|---------------------------------------------------------------------------|
G|---9-9-9-----------9-9-9--------7------------------------------------------|
D|----------7-10-7---------7-7-10-----10-10-10-9-9----------9-9-9-10-9-9-7---|
A|-------------------------------------------------10-10-7-------------------|
E|---------------------------------------------------------------------------|

For Playing along with the verse:

e|---------------------------------------------------------------------------|
B|---------------------------------------------------------------------------|
G|----9-7----------9--7-7------9-7----------9--7-7---------------------------|
D|--7-----10-7---7----------7------10-7---7----------------------------------|
A|---------------------------------------------------------------------------|
E|---------------------------------------------------------------------------|

e|---------------------------------------------------------------------------|
B|---------------------------------------------------------------------------|
G|---------------------------------------------------------------------------|
D|--7-9-7-9-7-7-10-7-9--7799-9-10-9-7----------------------------------------|
A|---------------------------------------------------------------------------|
E|---------------------------------------------------------------------------|




************************************
Добавлено: 07.04.2016
Другие материалы по этой песне:
  • Аккорды и текст

Страница создана 07.04.2016
http://primanota.ru/quartiere-coffee/sweet-aroma-chords.htm
Привет, Гость.
Предлагаем пройти революционный курс по гитаре.
Подарок от PrimaNota.Ru, забирай!