PrimaNota.ru - самый крупный в мире бесплатный архив песенных текстов, аккордов, табулатур и нот


Quantic - Not So Blue - таба, видео

Регистрация Запомнить меня
Войти через:  Facebook Google Twitter Vk Yandex Mail.ru

Quantic - Not So Blue - таба, видео

Печатать
Просмотров: 78
-------------------------------------------------------------------------------
                             Not So Blue (intro) - Quantic
-------------------------------------------------------------------------------
Tabbed by: A
E-mail: 

Tuning: Standard

e|---------------------------------------------------------------------------|
B|-----10-10----7-7----5-5-------------10-10----7-7----5-7-------------------|
G|-----11-11----7-7----6-6----6-6------11-11----7-7----6-7---6-6-------------|
D|-----11-11----7-7----6-6----7-7------11-11----7-7----6-7---7-7-------------|
A|---9--------5------4--------7-7----9--------5------4-------7-7-------------|
E|--------------------------5------------------------------5-----------------|


Добавлено: 26.06.2016
Другие материалы по этой песне:
  • Аккорды и текст

Страница создана 26.06.2016
http://primanota.ru/quantic/not-so-blue-chords.htm
Привет, Гость.
Предлагаем пройти революционный курс по гитаре.
Подарок от PrimaNota.Ru, забирай!