PrimaNota.ru - самый крупный в мире бесплатный архив песенных текстов, аккордов, табулатур и нот


Pyhät Nuket - Tuhlaajapoika - таба, видео

Регистрация Запомнить меня
Войти через:  Facebook Google Twitter Vk Yandex Mail.ru

Pyhät Nuket - Tuhlaajapoika - таба, видео

Печатать
Просмотров: 32
-------------------------------------------------------------------------------
                             Pyhät Nuket - Tuhlaajapoika
-------------------------------------------------------------------------------
Tabbed by:Miika Unkila
E-mail:Miika.unkila@gmail.com

Tuning:eBGDAE

e|---6-----------------------------------6-----------------------------------|
B|-----8-----------------------------------8---------------------------------|
G|-7-----7-10-8--7-7-5--78-10-8-7------7-----7-10-8--7-7-5--7-8--10-8-10-7---|
D|---------------------------------------------------------------------------|
A|---------------------------------------------------------------------------|
E|---------------------------------------------------------------------------|

e|---6-----------------------------------------------------------------------|
B|-----8---------------------------------------------------------------------|
G|-7-----7--10-8--7-7-5-3-2-0------------------------------------------------|
D|---------------------------------------------------------------------------|
A|---------------------------------------------------------------------------|
E|---------------------------------------------------------------------------|

Only the synthetiziser intro


************************************

| /   slide up
| \   slide down
| h   hammer-on
| p   pull-off
| ~   vibrato
| +   harmonic
| x   Mute note
| b   Bend
| pb  Pre-bend
| br  Bend release
| pbr Pre-bend release
| brb Bend release bend

************************************
Добавлено: 12.08.2015
Другие материалы по этой песне:
  • Аккорды и текст

Страница создана 12.08.2015
http://primanota.ru/pyhat-nuket/tuhlaajapoika-chords.htm
Привет, Гость.
Предлагаем пройти революционный курс по гитаре.
Подарок от PrimaNota.Ru, забирай!