PrimaNota.ru - самый крупный в мире бесплатный архив песенных текстов, аккордов, табулатур и нот


Pwr Bttm - I Wanna Boi - таба, видео

Регистрация Запомнить меня
Войти через:  Facebook Google Twitter Vk Yandex Mail.ru

Pwr Bttm - I Wanna Boi - таба, видео

Печатать
Просмотров: 128
-------------------------------------------------------------------------------
                             I Wanna Boi - PWR BTTM
-------------------------------------------------------------------------------
Tabbed by: Joseph2954
E-mail: 

Tuning: standard       

   This is all pretty much played with your fingers originally- without a pick. 
   I did my best to tab this from a few live videos, hopefully its mostly correct.
   If anythings wrong let me know and I'll make sure to correct it.

Intro:
     e:--------------------|--------------------|---------------------|
     B:--------------------|--------------------|---------------------|
     G:--------------------|--------------------|---------------------|
     D:--------------------|--------------------|---------------------|
     A:--------------------|--------------------|--3------------------|
     E:--1-----------------|--3-----------------|---------------------|        
I wanna boy      to keep the bed warm    while I shower

     e:--------------------|--------------------|---------------------|
     B:--------------------|--------------------|---------------------|
     G:--------------------|--------------------|---------------------|
     D:--------------------|--------------------|---------------------|
     A:--------------------|--------------------|--0-------3----------|
     E:--1-----------------|--3-----------------|---------------------|
I wanna boy      to keep the bed warm while we're watching tv

     e:--------------------|--------------------|---------------------|
     B:--------------------|--------------------|---------------------|
     G:--------------------|--------------------|---------------------|
     D:--------------------|--------------------|---------------------|
     A:--------------------|--------------------|----3---2---1---0----|
     E:--1-----------------|--3-----------------|---------------------|
I wanna boy     to keep the bed warm     When the whole house is freezing

     e:--------------------|--------------------|---------------------|
     B:--------------------|--------------------|---------------------|
     G:--------------------|--------------------|---------------------|
     D:--------------------|--------------------|---------------------|
     A:--------------------|--------------------|--3------------------|
     E:--1-----------------|--3-----------------|---------------------|        
I wanna boy       who isn't anything           like me


         F                 G              C      C
I wanna boy who doesn't like to go out shopping

         F                   G            Am       C
I wanna boy who thinks it's sexy when my lipstick bleeds

         F              G                   C   Am
I wanna boy who can go all night without stopping

         F               G              C
I wanna boy who knows exactly what he needs

                  1!  2!  3!
1st Solo: 
e|---------------------------------------------------------------------------|
B|-------------------0-h-1--0-0--1-3----7------5-4---------------------------|
G|----0----1--2-2-----------0-0-----------7----------------------------------|
D|------------3-3---------------------------7--------------------------------|
A|---------------------------------------------------------------------------|
E|---------------------------------------------------------------------------|

e|---------------------------------------------------------------------------|
B|------------------0-h-1--0-0---1-3--1-/-10----10-9-------------------------|
G|---------1--2-2----------0-0--------0--------------------------------------|
D|------------3-3------------------------------------------------------------|
A|---------------------------------------------------------------------------|
E|---------------------------------------------------------------------------|

e|---------------------------------------------------------------------------|
B|-------------------0-h-1--0-0--1-3----7------5-4---------------------------|
G|---------1--2-2-----------0-------------7----------------------------------|
D|------------3-----------------------------7--------------------------------|
A|---------------------------------------------------------------------------|
E|---------------------------------------------------------------------------|

e|---------------------------------------------------------------------------|
B|-------------------0-h-1--0-0--1-3--1--------------------------------------|
G|---------1--2-2-----------0-0-------0--------------------------------------|
D|------------3-3------------------------------------------------------------|
A|---------------------------------------------------------------------------|
E|---------------------------------------------------------------------------|


         e:--------------------|--------------------|---------------------|
         B:--------------------|--------------------|---------------------|
         G:--------------------|--------------------|---------------------|
         D:--------------------|--------------------|---------------------|
         A:--------------------|--------------------|----3---2---1---0----|
         E:--1-----------------|--3-----------------|---------------------|
So if you think That you're the boy for me           And I'm the boy for you

         e:--------------------|--------------------|---------------------|
         B:--------------------|--------------------|---------------------|
         G:--------------------|--------------------|---------------------|
         D:--------------------|--------------------|---------------------|
         A:--------------------|--------------------|----3---2---1---0----|
         E:--1-----------------|--3-----------------|---------------------|
  Drop me a line at          o b 8 4 1 9 @               bard.edu


           F          G
Tell me little bit about yourself

          C       Am
Send a picture or two

           F
And hurry up now because

      G             C
It's only getting colder

                  1!  2!  3!

2nd Solo:
e|---------------------------------------------------------------------------|
B|-------------------0-h-1--0-0--1-3----7------5-4---------------------------|
G|----0----1--2-2-----------0-0-----------7----------------------------------|
D|------------3-3---------------------------7--------------------------------|
A|---------------------------------------------------------------------------|
E|---------------------------------------------------------------------------|

e|---------------------------------------------------------------------------|
B|------------------0-h-1--0-0---1-3--1-/-10----10-9-------------------------|
G|---------1--2-2----------0-0--------0--------------------------------------|
D|------------3-3------------------------------------------------------------|
A|---------------------------------------------------------------------------|
E|---------------------------------------------------------------------------|

e|---------------------------------------------------------------------------|
B|-------------------0-h-1--0-0--1-3----5-4-3-2------------------------------|
G|---------1--2-2-----------0-----------5-4-3-2------------------------------|
D|------------3--------------------------------------------------------------|
A|---------------------------------------------------------------------------|
E|---------------------------------------------------------------------------|

e|---------------------------------------------------------------------------|
B|-------------------0-h-1--0-0--1-3--1--------------------------------------|
G|---------1--2-2-----------0-0-------0--------------------------------------|
D|------------3-3------------------------------------------------------------|
A|---------------------------------------------------------------------------|
E|---------------------------------------------------------------------------|

**********************************************************************************
Heres the video I used to tab the song https://www.youtube.com/watch?v=t7v7OhkBFTg
***********************************************************************************

| /   slide up
| \   slide down
| h   hammer-on
| p   pull-off
| ~   vibrato
| +   harmonic
| x   Mute note
| b   Bend
| pb  Pre-bend
| br  Bend release
| pbr Pre-bend release
| brb Bend release bend

************************************
Добавлено: 06.06.2016
Вам также может быть интересно:
Другие материалы по этой песне:
  • Аккорды и текст

Страница создана 06.06.2016
http://primanota.ru/pwr-bttm/i-wanna-boi-chords.htm
Привет, Гость.
Предлагаем пройти революционный курс по гитаре.
Подарок от PrimaNota.Ru, забирай!