PrimaNota.ru - самый крупный в мире бесплатный архив песенных текстов, аккордов, табулатур и нот


Pvris - Gemini - таба, видео

Регистрация Запомнить меня
Войти через:  Facebook Google Twitter Vk Yandex Mail.ru

Pvris - Gemini - таба, видео

Печатать
Просмотров: 178
-------------------------------------------------------------------------------
                            Gemini by PVRIS
-------------------------------------------------------------------------------
E-mail: pieces25888@gmail.com

You can see how I play this here https://www.youtube.com/watch?v=4xLWrMIiWCc

It's my first tab. Maybe it have mistakes, sorry for this.

Tuning: Drop C

                          INTRO
D|---------------------------------------------------------------------------|
A|---------------------------------------------------------------------------|
F|---------------------------------------------------------------------------|  x2
C|---------------------------------------------------------------------------|
G|------------------5-5-0-0--------------------------------------------------|
C|-8/3-0--0-0--0-0-----------8/3-0-0--0-0--7-7-8-8-11-11-11------------------|
PM ... .  . .  . .           . . . .  . .  . . . . .. .. ..

                          VERSE 1
D|---------------------------------------------------------------------------|
A|---------------------------------------------------------------------------|
F|-7~-------------- ---------------------------------------------------------|
C|-7~--12~--11~---(x2)------------------------------------------7------------|
G|-5~--10~--10~-------------5(x16)--0(x8)--10(x8)----x2---------7------------|
C|--------------------------5(x16)--0(x8)--10(x8)---------------7------------|
                         PM .       .      ..           .

                          CHORUS
D|---------------------------------------------------------------------------|
A|---------------------------------------------------------------------------|
F|---------------------------------------------------------------------------|
C|-0--8--7-----------5-5-5------0-0-0------10-10-10--------------------------|
G|-0--8--7--(x2)-----5-5-5(x4)--0-0-0(x2)--10-10-10(x2)----------------------|
C|-0--8--7-----------5-5-5------0-0-0------10-10-10--------------------------|
                  PM . . .      . . .      .. .. ..
D|---------------------------------------------------------------------------|
A|---------------------------------------------------------------------------|
F|---------------------------------------------------------------------------|
C|-5-5-5------10-10-10------11-11-11-----------------------------------------|
G|-5-5-5(x4)--10-10-10(x2)--11-11-11(x2)-------------------------------------|
C|-5-5-5------10-10-10------11-11-11-----------------------------------------|
PM . . .      .. .. ..      .. .. ..


                          INTRO
D|---------------------------------------------------------------------------|
A|---------------------------------------------------------------------------|
F|---------------------------------------------------------------------------|  x2
C|---------------------------------------------------------------------------|
G|------------------5-5-0-0--------------------------------------------------|
C|-8/3-0--0-0--0-0-----------8/3-0-0--0-0--7-7-8-8-11-11-11------------------|
PM ... .  . .  . .  . . . .  ... . .  . .  . . . . .. .. ..

                          VERSE 2
D|---------------------------------------------------------------------------|
A|---------------------------------------------------------------------------|
F|-7~-------------- ---------------------------------------------------------|
C|-7~--12~--11~-------------------------------------------------7------------|
G|-5~--10~--10~-------------5(x16)--0(x8)--10(x8)----x2---------7------------|
C|--------------------------5(x16)--0(x8)--10(x8)---------------7------------|
                        PM  .       .      ..                   .
                        
                         PRE-CHORUS
D|---------------------------------------------------------------------------|
A|---------------------------------------------------------------------------|
F|---------------------------------------------------------------------------|
C|-8~--10~--0~--3~--8~--10~------7-------------------------------------------|
G|-8~--10~--0~--3~--8~--10~------7-------------------------------------------|
C|-8~--10~--0~--3~--8~--10~------7-------------------------------------------|
 
                          CHORUS
D|---------------------------------------------------------------------------|
A|---------------------------------------------------------------------------|
F|---------------------------------------------------------------------------|
C|-0--8--7-----------5-5-5--------0-0-0--------10-10-10----------------------|
G|-0--8--7--(x2)-----5-5-5--(x4)--0-0-0--(x2)--10-10-10--(x2)----------------|
C|-0--8--7-----------5-5-5--------0-0-0--------10-10-10----------------------|

D|---------------------------------------------------------------------------|
A|---------------------------------------------------------------------------|
F|---------------------------------------------------------------------------|
C|-5-5-5------10-10-10------11-11-11-----------------------------------------|
G|-5-5-5(x4)--10-10-10(x2)--11-11-11(x2)-------------------------------------|
C|-5-5-5------10-10-10------11-11-11-----------------------------------------|
PM . . .      .. .. ..      .. .. ..

        
                          BRIDGE
D|-------------    ----------------------------------------------------------|
A|-------------    ----------------------------------------------------------|
F|-------------    ----------------------------------------------------------|х2
C|-------------    ----------------------------------------------------------|
A|-------------    ----------------------------------------------------------|
C|-0-0-0--(x16)    ---8-0-0--0-0----0-0--0-0(х2)----0-0--0-0-0-0-0-----------|
PM . . .              . . .  . .    . .  . .        . .  . . . . .

                          CHORUS
D|---------------------------------------------------------------------------|
A|---------------------------------------------------------------------------|
F|---------------------------------------------------------------------------|
C|-0--8--7-----------5-5-5--------0-0-0--------10-10-10----------------------|
G|-0--8--7--(x2)-----5-5-5--(x4)--0-0-0--(x2)--10-10-10--(x2)----------------|
C|-0--8--7-----------5-5-5--------0-0-0--------10-10-10----------------------|

D|---------------------------------------------------------------------------|
A|---------------------------------------------------------------------------|
F|---------------------------------------------------------------------------|
C|-5-5-5------10-10-10------11-11-11-----------------------------------------|
G|-5-5-5(x4)--10-10-10(x2)--11-11-11(x2)-------------------------------------|
C|-5-5-5------10-10-10------11-11-11-----------------------------------------|
PM . . .      .. .. ..      .. .. ..



                          INTRO(END)
D|---------------------------------------------------------------------------|
A|---------------------------------------------------------------------------|
F|---------------------------------------------------------------------------|  x2
C|---------------------------------------------------------------------------|
G|------------------5-5-0-0--------------------------------------------------|
C|-8/3-0--0-0--0-0-----------8/3-0-0--0-0--7-7-8-8-11-11-11------------------|
PM ... .  . .  . .           . . . .  . .  . . . . .. .. ..

************************************

| /   slide up
| \   slide down
| h   hammer-on
| p   pull-off
| ~   vibrato
| +   harmonic
| x   Mute note
| b   Bend
| pb  Pre-bend
| br  Bend release
| pbr Pre-bend release
| brb Bend release bend

************************************
Добавлено: 12.09.2015
Другие материалы по этой песне:
  • Аккорды и текст

Страница создана 12.09.2015
http://primanota.ru/pvris/gemini-chords.htm
Привет, Гость.
Предлагаем пройти революционный курс по гитаре.
Подарок от PrimaNota.Ru, забирай!