PrimaNota.ru - самый крупный в мире бесплатный архив песенных текстов, аккордов, табулатур и нот


Pv Nova - Stay And Play - аккорды и текст, видео

Регистрация Запомнить меня
Войти через:  Facebook Google Twitter Vk Yandex Mail.ru

Pv Nova - Stay And Play - аккорды и текст, видео

Печатать
Просмотров: 35
Уроки эстрадного вокала в Санкт-Петербурге
Stay And Play
Pv Nova
La chanson de Rock Macabre composée par Pv Nova!
Remarque: la version originale est jouée CAPO 10, cependant le CAPO 2 ou 6 est plus confortable, à vous de voir!

F7M  : 0123xx

CAPO 10

Arpèges:
   
   INTRO

    Am               C                F7M  
e|--------0----------------0----------------0----------------0----------|
B|----1-----1----------1-----1----------1------1---------1-----1--------|
G|--2---2-----2------0---0-----0----------2------2---------2-----2------|  x2
D|------------------------------------3----------------3----------------| 
A|----------------------------------------------------------------------|
E|----------------------------------------------------------------------|

   COUPLET

    Am               C                F7M  
e|-------0----------------0----------------0----------------0----------|
B|----1----1-----------1----1----------1------1---------1-----1--------|
G|--2---2----2-------0---0----0----------2------2---------2-----2------|  x4
D|-----------------------------------3----------------3----------------|
A|---------------------------------------------------------------------|
E|---------------------------------------------------------------------|

    G                              F7M  
e|-------0--------------0----------------0-------------0---------------|
B|----3----3--------3-----3----------1-----1----------1----------------|
G|--0---0----0----0---0-----0----------2-----2-------2-----------------| 
D|---------------------------------3----------------3------------------|
A|---------------------------------------------------------------------|
E|---------------------------------------------------------------------|

   REFRAIN

    Am               C                F7M  
e|-------0----------------0----------------0----------------0----------|
B|----1----1-----------1----1----------1------1---------1-----1--------|
G|--2---2----2-------0---0----0----------2------2---------2-----2------| 
D|-----------------------------------3----------------3----------------|
A|---------------------------------------------------------------------|
E|---------------------------------------------------------------------|

    Am               C                G
e|-------0----------------0----------------0----------------0----------|
B|----1----1-----------1----1----------3------3---------3-----3--------|
G|--2---2----2-------0---0----0------0---0------0-----0---0-----0------| 
D|---------------------------------------------------------------------|
A|---------------------------------------------------------------------|
E|---------------------------------------------------------------------|

    Am               C                F7M             G       E7
e|-------0----------------0----------------0--------------0-------0----|
B|----1----1-----------1----1----------1------1---------3-------0------|
G|--2---2----2-------0---0----0----------2------2-----0-------1--------| 
D|-----------------------------------3---------------------------------|
A|---------------------------------------------------------------------|
E|---------------------------------------------------------------------|

    Am               C                G
e|-------0----------------0----------------0----------------0----------|
B|----1----1-----------1----1----------3------3---------3-----3--------|
G|--2---2----2-------0---0----0------0---0------0-----0---0-----0------| 
D|---------------------------------------------------------------------|
A|---------------------------------------------------------------------|
E|---------------------------------------------------------------------|

INTRO 
(Acapella)
Hhhhhhhhhhhhhhm...
Hhhhhhhhhhhhhhm...

(Guitare en arpèges)
Am     C     F7M      
Hhhhhhhhhhhhhhm...
Am     C     F7M    
Hhhhhhhhhhhhhhm...

COUPLET 1 (Arpèges)
          Am                       C
Would you find me somewhere in the shadow?
      F7M  
Would stay and wait for tomorrow?
      Am                     C          F7M  
I was wrong to believe I was free on my own
         Am                     C
Find the place I thought it was lost
       F7M  
It was deep down in the frost
      Am                    C     F7M          
Now I know it's ok, it was onlyyyyyy a ghost

G (x2) - F 


REFRAIN (Arpèges)
       Am   C   F7M  
Please stay and play
         Am                   C                   G
When you hear it's ok I don't care what everybody say
          Am    C     F7M       G    E7 
Don't you fade aaaaaaway
       Am          
I need you next to me
        C                    G
Side by side back in the old days

COUPLET 2 (Arpèges)
          Am                       C
Would you find me somewhere in the shadow?
      F7M  
Would stay and wait for tomorrow?
      Am                     C          F7M  
I was wrong to believe I was free on my own
      Am                 C
I'm afraid I'm a bit too late
        F7M  
I don't want to finish what I dread
       Am                     C           F7M          
It was me on the long looking the sincere

REFRAIN (x2)
       Am   C   F7M  
Please stay and play
         Am                   C                   G
When you hear it's ok I don't care what everybody say
          Am    C     F7M       G    E7 
Don't you fade aaaaaaway
       Am          
I need you next to me
        C                    G
Side by side back in the old days

COUPLET 3
          Am                       C
Would you find me somewhere in the shadow?
      F7M  
Would stay and wait for tomorrow?
      Am                     C          F7M  
I was wrong to believe I was free on my own
         Am                     C
Find the place I thought it was lost
       F7M  
It was deep down in the frost
      Am                    C          F7M          
Now I know it's ok, it was only a ghost

REFRAIN
       Am   C   F7M  
Please stay and play
         Am                   C                   G
When you hear it's ok I don't care what everybody say
          Am    C     F7M       G    E7 
Don't you fade aaaaaaway
       Am          
I need you next to me
        C                    G
Side by side back in the old days
Добавлено: 29.02.2016
Другие материалы по этой песне:
  • Аккорды и текст

Страница создана 29.02.2016
http://primanota.ru/pv-nova/stay-and-play-chords.htm
Привет, Гость.
Предлагаем пройти революционный курс по гитаре.
Подарок от PrimaNota.Ru, забирай!