PrimaNota.ru - самый крупный в мире бесплатный архив песенных текстов, аккордов, табулатур и нот


Pv Nova - My Pride - аккорды и текст, видео

Регистрация Запомнить меня
Войти через:  Facebook Google Twitter Vk Yandex Mail.ru

Pv Nova - My Pride - аккорды и текст, видео

Печатать
Просмотров: 107
My Pride
Pv Nova
This is the intro for "my pride" By PV Nova if you want to play without capo

|------------------------------------------------------------------------|
|------------------------------------------------------------------------|
|----0-------3-0---0-------------------------------------------0-0-------|
|------3-1-------3---1-----1-1-2-------------3-1-----------1-3-----3-1-0-|
|--3-------3-----------1-3-------3-1-------3-----3-1-----3---------------|
|------------------------------------3-1-4-----------3-4-----------------|


And here's the chords and tabs if you want to play with the CAPO ON THE 3RD FRET

Intro :
|----------------------------------------------------------------------|
|----------------------------------------------------------------------|
|------------0---------------------------------------------------------|
|----2-0-------2-0-2-----------------------0---------------0-2-2-0-----|
|--0-----3-0---------3---2-3-4-0-------0-3---3-0-------0-3---------3-2-|
|----------------------3---------3-0-1-----------3-0-1-----------------|


Am               E
Flashback to the good old days when
Am                          E
You took my hands, said I'll love you always and
F
We'd never walk on different ways then
Cm
We would talk about living together

Am      E
After all the satisfaction
Am                E
We're caught up in a tricky situation
F
Our love turned sour and nasty
Cm
Now you feel so sorry and hasty


Am      E
Do you understand
       C                     G                     F
When I speak about love, you talk about pain
             F
I can't stand no longer
Cm
You think that I'm a fool but it's not
Am       E
Cool to let you down
C                       G
There ain't no pleasure here goin' on
F
I can't stand no longer
Cm
You think that I'm a punk ?

[Chorus]
Am                                  Em
You took my pride and put it on the floor
           Am                      Em
Stole what's mine and now you want more
            F
I'll never love you if I can't trust you
          Cm
I'm gonna leave you I need to get through
Am                                  Em
You took my pride and put it on the floor
             Am                    Em
Stole what's mine and now you want more
        F
We both know it, we have to face it
          Cm
I'm gonna leave you I need to get through

(Repeat the chords)
Once again I'm the one without illusions
Stuck in a game and facing a decision
I take a look back, keep my head cool
I need to step ahead and wake up for good
After all the complications
The mistrust and unexpected deceptions
Our love turned sour and nasty
Now you feel so sorry and hasty

[Chorus]
You took my pride and put it on the floor
Stole what's mine and now you want more
I'll never love you if I can't trust you
I'm gonna leave you I need to get through
You took my pride and put it on the floor
Stole what's mine and now you want more
We both know it, we have to face it
I'm gonna leave you I need to get through

Dm
When it's pay time I'll get my money back
Am
Take the fast lane once again back on the track
Dm
Soon I know I'll get it done
Am
Get the moon get it all alone
Dm
Cause I'm smarter and you're insane
Am
I'm faster that you will never be
Bm
So believe it or not you're not pretty nor hot

I'm gonna let you burn now it's your turn

[Chorus]
You took my pride and put it on the floor
Stole what's mine and now you want more
I'll never love you if I can't trust you
I'm gonna leave you I need to get through

More lyrics: http://www.lyricsmania.com/my_pride_lyrics_pv_nova.html
All about Pv Nova: http://www.musictory.com/music/Pv+Nova
Добавлено: 12.10.2013
Другие материалы по этой песне:
  • Аккорды и текст

Страница создана 12.10.2013
http://primanota.ru/pv-nova/my-pride-chords.htm
Привет, Гость.
Предлагаем пройти революционный курс по гитаре.
Подарок от PrimaNota.Ru, забирай!