PrimaNota.ru - самый крупный в мире бесплатный архив песенных текстов, аккордов, табулатур и нот


Puya - Sal Pa' Fuera - аккорды и текст, таба, видео

Регистрация Запомнить меня
Войти через:  Facebook Google Twitter Vk Yandex Mail.ru

Puya - Sal Pa' Fuera - аккорды и текст, таба, видео

Печатать
Просмотров: 89
Sal Pa' Fuera
Puya
+++++++++++++++++++++++++++++++++++++++

            P U Y A

        "Sal pa' fuera"

         [fundamental]

+++++++++++++++++++++++++++++++++++++++


- tune down 2 steps
- 6th: 4 steps
- max. 2/3 distortion




INTRO
d|-----------------------------------
a|-----------------------------------
f|-----------------------------------
c|--3-6-10----3-6-10--0--1--3-6-10---
g|--3-6-10----3-6-10--0--1--3-6-10---
c|--3-6-10----3-6-10--0--1--3-6-10---



d|--------------------------
a|--------------------------
f|--------------------------
c|--3-6-10--0--1--3-6-10\---
g|--3-6-10--0--1--3-6-10\---
c|--3-6-10--0--1--3-6-10\---



d|-----------------------------------------
a|-----------------------------------------
f|-----------------------------------------
c|--3-6-10--0--1--3-6-10\---3-6-10--0---1--
g|--3-6-10--0--1--3-6-10\---3-6-10--0---1--
c|--3-6-10--0--1--3-6-10\---3-6-10--0---1--



d|--------------------------
a|--------------------------
f|--------------------------
c|--00----00----00----00----
g|--00----00----00----00----
c|--00----00----00----00----



CHORUS
d|-------------------------------------
a|-------------------------------------
f|-------------------------------------
c|--(00)---------3----(00)---------5---
g|--(00)--0-3-5-------(00)--0-3-5------
c|---00----------------00--------------



VERSE / CHORUS
d|-------------------------------------
a|-------------10-----------------12---
f|-------------10-----------------12---
c|---00--0-0---10-------00--0-0---12---
g|---00--0-0------------00--0-0--------
c|---00--0-0------------00--0-0--------



BRIDGE
d|----------------------------------------------------
a|----------------------------------------------------
f|--10-10-10------------------------------------------
c|--10-10-10---6-6-6---9-9-9---9-9-9---8-8-8---8-8-8--
g|---8--8--8---6-6-6---9-9-9---9-9-9---8-8-8---8-8-8--
c|-------------6-6-6---9-9-9---9-9-9---8-8-8---8-8-8--



"despierta conciencia"
d|-----------------
a|-----------------
f|-----------------
c|---8-9-6-8-9-8---
g|---8-9-6-8-9-8---
c|---8-9-6-8-9-8---



"despierta..."
d|------------------------------------
a|------------------------------------
f|------------------------------------
c|------------------------------------
g|--1111-4\1-1/3/4-1/3/4----5---------
c|--1111-4\1-1/3/4-1/3/4-------7--6---



d|---------------------------------
a|---------------------------------
f|---------------------------------
c|---------------------------------
g|--5---------4---------0----------
c|-----7-6-------6-5------5-3-0----



after solo
d|---------------------------------
a|---------------------------------
f|---------------------------------
c|--3\2---3/5---3\2---3/5---5/6----
g|--3\2---3/5---3\2---3/5---5/6----
c|--3\2---3/5---3\2---3/5---5/6----



moshbaby HR  jonadean@hotmail.com>
     
Добавлено: 12.11.2013
Другие материалы по этой песне:
  • Аккорды и текст

Страница создана 12.05.2012
http://primanota.ru/puya/sal-pa-fuera-chords.htm
Привет, Гость.
Предлагаем пройти революционный курс по гитаре.
Подарок от PrimaNota.Ru, забирай!