PrimaNota.ru - самый крупный в мире бесплатный архив песенных текстов, аккордов, табулатур и нот


Putrid Pile - The Gorebox - текст песни, таба, видео

Регистрация Запомнить меня
Войти через:  Facebook Google Twitter Vk Yandex Mail.ru

Putrid Pile - The Gorebox - текст песни, таба, видео

Печатать
Просмотров: 183
Уроки эстрадного вокала в Санкт-Петербурге
The Gorebox
Putrid Pile
Tabbed By Ryan

this is my first tab



Tremblo parts are not exact amount of notes, if you know the song that wont matter


c#-----------------------------------------------------------------------|
g#-----------------------------------------------------------------------|
e------------------------------------------------------------------------|
b---2------------------------4-------------------------------------------|
f#--2----5--4----5--4----4-5-2-------------------------------------------|
c#--0----3--2----3--2----2-3---------------------------------------------|
   

c#-----------------------------------------------------------------------|
g#-----------------------------------------------------------------------|
e------------------------------------------------------------------------|
b--------------------------------------------------------5---------------|
f#--2--4--5--4--6--5--4--2-4--2--4-4-5-5--4--2--4-5--4-5-3---------------|
c#--0--2--3--2--4--3--2--0-2--0--2-2-3-3--2--0--2-3--2-3-----------------|
    |-------------------PM------------------------------------------|         

c#-----------------------------------------------------------------------|
g#-----------------------------------------------------------------------|
e------------------------------------------------------------------------|
b-----------------------------------------------------4--6---------------|
f#--2--4--5--4--6--5--4--2-4--2--4-4-5-5--4--2--4-5---2--4---------------|
c#--0--2--3--2--4--3--2--0-2--0--2-2-3-3--2--0--2-3----------------------|
    |-------------------PM------------------------------------------|           


c#-----------------------------------------------------------------------|
g#-----------------------------------------------------------------------|
e------------------------------------------------------------------------|
b------------------------------------------------------------------------|
f#----------------------33333333222222222--------------------------------|
c#---011111111444444404-------------------111111111----------------------|



c#-----------------------------------------------------------------------|
g#-----------------------------------------------------------------------|
e------------------------------------------------------------------------|
b----------------------------------------22222222222---------------------|
f#----------------------33333333222222222--------------------------------|
c#---011111111444444404--------------------------------------------------|



c#-----------------------------------------------------------------------|
g#-----------------------------------------------------------------------|
e------------------------------------------------------------------------|
b------------------------------------------------------------------------|
f#-----------------------5--4-----5-8-5-8-5-8-5-8—-6-9-6-9-6-9-6---------|
c#---000000000000000000--3--2--------------------------------------------|




c#-----------------------------------------------------------------------|
g#-----------------------------------------------------------------------|
e------------------------------------------------------------------------|
b------------------------------------------------5--4--------------------|
f#-----------------------5--4--------------5--2--3--2--------------------|
c#---000000000000000000--3--2—000000000000-3--0--------------------------|


c#-----------------------------------------------------------------------|
g#-----------------------------------------------------------------------|
e------------------------------------------------------------------------|
b------------------------------------------------------------------------|
f#--2-----4--5--2--5--4-5--4-5-----5--2-----4--5--4--2-2---7777778888888-|
c#--0--0--2--3--0--3--2-3--2-3--0--3--0--0--2--3--2--0-0-----------------|

  
c#-----------------------------------------------------------------------|
g#-----------------------------------------------------------------------|
e------------------------------------------------------------------------|
b-----------------------------------------------------9999991010101099999|
f#--2-----4--5--2--5--4-5--4-5-----5--2-----4--5--4----------------------|
c#--0--0--2--3--0--3--2-3--2-3--0--3--0--0--2--3--2----------------------|

played 4 times the last bar is changed
c#-----------------------------------------------------------------------|
g#-----------------------------------------------------------------------|
e------------------------------------------------------------------------|
b----------------------------------------22222222233333333---------------|
f#---2222222223333333300000000-222222222---------------------------------|
c#-----------------------------------------------------------------------|


c#-----------------------------------------------------------------------|
g#-----------------------------------------------------------------------|
e------------------------------------------------------------------------|
b------------------------------------------------------------------------|
f#---2222222233333333300000000-222222222---------------------------------|
c#---------------------------------------4444444443333333333-------------|


c#-----------------------------------------------------------------------|
g#-----------------------------------------------------------------------|
e------------------------------------------------------------------------|
b----------------------------------------22222222233333333---------------|
f#---2222222223333333300000000-222222222---------------------------------|
c#-----------------------------------------------------------------------|


c#-----------------------------------------------------------------------|
g#-----------------------------------------------------------------------|
e------------------------------------------------------------------------|
b------------------------------------------------------------------------|
f#---22222222333333333---------------------------------------------------|
c#---------------------4444444443333333333-------------------------------|
repeat this 3 times and on the 4th time play this for the last one

c#-----------------------------------------------------------------------|
g#-----------------------------------------------------------------------|
e------------------------------------------------------------------------|
b------------------------------------------------------------------------|
f#---22222222333333333-------5-5-5-5-5-5---------------------------------|
c#---------------------4444--3-3-3-3-3-3---------------------------------|



c#-----------------------------------------------------------------------|
g#-----------------------------------------------------------------------|
e------------------------------------------------------------------------|
b----------------------------------------22222222233333333---------------|
f#---2222222223333333300000000-222222222---------------------------------|
c#-----------------------------------------------------------------------|



c#-----------------------------------------------------------------------|
g#-----------------------------------------------------------------------|
e------------------------------------------------------------------------|
b------------------------------------------------------------------------|
f#---2222222233333333300000000-222222222---------------------------------|
c#---------------------------------------4444444443333333333-------------|


c#-----------------------------------------------------------------------|
g#-----------------------------------------------------------------------|
e------------------------------------------------------------------------|
b----------------------------------------22222222233333333---------------|
f#---2222222223333333300000000-222222222---------------------------------|
c#-----------------------------------------------------------------------|

c#-----------------------------------------------------------------------|
g#-----------------------------------------------------------------------|
e------------------------------------------------------------------------|
b------------------------------------------------------------------------|
f#---22222222333333333---------------------------------------------------|
c#---------------------4444444443333333333-------------------------------|


c#-----------------------------------------------------------------------|
g#-----------------------------------------------------------------------|
e------------------------------------------------------------------------|
b----------------------------------------22222222233333333---------------|
f#---2222222223333333300000000-222222222---------------------------------|
c#-----------------------------------------------------------------------|


c#-----------------------------------------------------------------------|
g#-----------------------------------------------------------------------|
e------------------------------------------------------------------------|
b------------------------------------------------------------------------|
f#---2222222233333333300000000-222222222---------------------------------|
c#---------------------------------------4444444443333333333-------------|


c#-----------------------------------------------------------------------|
g#-----------------------------------------------------------------------|
e------------------------------------------------------------------------|
b----------------------------------------22222222233333333---------------|
f#---2222222223333333300000000-222222222---------------------------------|
c#-----------------------------------------------------------------------|



c#-----------------------------------------------------------------------|
g#-----------------------------------------------------------------------|
e------------------------------------------------------------------------|
b------------------------------------------------------------------------|
f#---22222222333333333-------3-3-3-3-3-3---------------------------------|
c#---------------------4444--1-1-1-1-1-1---------------------------------|


c#-----------------------------------------------------------------------|
g#-----------------------------------------------------------------------|
e------------------------------------------------------------------------|
b---2----------------5-4-------------------------------------------------|
f#--2-------5--4--5--3-2--4--5---3-3-3-3-3-3-3---------------------------|
c#--0-------3--2--3-------2--3---1-1-1-1-1-1-1---------------------------|


c#-----------------------------------------------------------------------|
g#-----------------------------------------------------------------------|
e------------------------------------------------------------------------|
b------------------------------------------------------------------------|
f#------------------------------222---------444--------------------------|
c#--000-000-000-000-000-000-222-----333-111-----333----------------------|


c#-----------------------------------------------------------------------|
g#-----------------------------------------------------------------------|
e------------------------------------------------------------------------|
b------------------------------------------------------------------------|
f#--------------------------------------333333333-22222222---------------|
c#--000-000-000-000-000-000--1111111111--------------------33------------|

c#-----------------------------------------------------------------------|
g#-----------------------------------------------------------------------|
e------------------------------------------------------------------------|
b------------------------------------------------------------------------|
f#------------------------------222---------444--------------------------|
c#--000-000-000-000-000-000-222-----333-111-----333----------------------|


c#-----------------------------------------------------------------------|
g#-----------------------------------------------------------------------|
e------------------------------------------------------------------------|
b------------------------------------------------------------------------|
f#--------------------------------------333333333-22222222---------------|
c#--000-000-000-000-000-000--1111111111--------------------------------|


c#-----------------------------------------------------------------------|
g#-----------------------------------------------------------------------|
e------------------------------------------------------------------------|
b------------------------------------------------------------------------|
f#------------------------------222---------444--------------------------|
c#--000-000-000-000-000-000-222-----333-111-----333----------------------|


c#-----------------------------------------------------------------------|
g#-----------------------------------------------------------------------|
e------------------------------------------------------------------------|
b------------------------------------------------------------------------|
f#--------------------------------------333333333-22222222---------------|
c#--000-000-000-000-000-000--1111111111--------------------33------------|

c#-----------------------------------------------------------------------|
g#-----------------------------------------------------------------------|
e------------------------------------------------------------------------|
b------------------------------------------------------------------------|
f#------------------------------222---------444--------------------------|
c#--000-000-000-000-000-000-222-----333-111-----333----------------------|


c#-----------------------------------------------------------------------|
g#-----------------------------------------------------------------------|
e------------------------------------------------------------------------|
b------------------------------------------------------------------------|
f#--------------------------------------333333333-22222222---------------|
c#--000-000-000-000-000-000--1111111111----------------------------------|



c#-----------------------------------------------------------------------|
g#-----------------------------------------------------------------------|
e------------------------------------------------------------------------|
b------------4---------------------5-4-----------------------------------|
f#--5-4-5-4--2--4--5--4-5-4--2--4--3-2--3-3------------------------------|
c#--3-2-3-2-----2--3--2-3-2--0--2-------1-1------------------------------|



c#-----------------------------------------------------------------------|
g#-----------------------------------------------------------------------|
e------------------------------------------------------------------------|
b------------------------------------------------------------------------|
f#----------333333333-22222222----------2222222222-----------------------|
c#--11111111-------------------333333333-----------22222222-3333333333---|


c#-----------------------------------------------------------------------|
g#-----------------------------------------------------------------------|
e------------------------------------------------------------------------|
b------------------------------------------------------------------------|
f#----------22333333333333333333333-2222222222222222222------------------|
c#--11111111-------------------------------------------------------------|


c#-----------------------------------------------------------------------|
g#-----------------------------------------------------------------------|
e------------------------------------------------------------------------|
b------------------------------------------------------------------------|
f#----------333333333-22222222----------2222222222-----------------------|
c#--11111111-------------------333333333-----------22222222-3333333333---|


c#-----------------------------------------------------------------------|
g#-----------------------------------------------------------------------|
e------------------------------------------------------------------------|
b------------------------------------------------------------------------|
f#----------22333333333333333322222222-----------------------------------|
c#--11111111---------------------------333333333333-2222222222-----------|



c#-----------------------------------------------------------------------|
g#-----------------------------------------------------------------------|
e------------------------------------------------------------------------|
b--------5-4-------5-4-------5-4-------454-------------------------------|
f#--4-5--3-2--4-5--3-2--4-5--3-2--454--232-------------------------------|
c#--2-3-------2-3-------2-3-------232------------------------------------|



c#-----------------------------------------------------------------------|
g#-----------------------------------------------------------------------|
e------------------------------------------------------------------------|
b--------5-4-------5-4-------5-4-------454-------------------------------|
f#--4-5--3-2--4-5--3-2--4-5--3-2--454--232-------------------------------|
c#--2-3-------2-3-------2-3-------232------------------------------------|


c#-----------------------------------------------------------------------|
g#-----------------------------------------------------------------------|
e------------------------------------------------------------------------|
b--------5-4-------5-4-------5-4-------454-------------------------------|
f#--4-5--3-2--4-5--3-2--4-5--3-2--454--232-------------------------------|
c#--2-3-------2-3-------2-3-------232------------------------------------|


c#-----------------------------------------------------------------------|
g#-----------------------------------------------------------------------|
e------------------------------------------------------------------------|
b--------5-4-------5-4---------------------------------------------------|
f#--4-5--3-2--4-5--3-2---5--4--2--4--5--4--2--4--------------------------|
c#--2-3-------2-3--------3--2--0--2--3--2--0--2--------------------------|


c#-----------------------------------------------------------------------|
g#-----------------------------------------------------------------------|
e------------------------------------------------------------------------|
b--------5-4-------5-4-------5-4-------454-------------------------------|
f#--4-5--3-2--4-5--3-2--4-5--3-2--454--232-------------------------------|
c#--2-3-------2-3-------2-3-------232------------------------------------|


c#-----------------------------------------------------------------------|
g#-----------------------------------------------------------------------|
e------------------------------------------------------------------------|
b--------5-4-------5-4-------5-4-------454-------------------------------|
f#--4-5--3-2--4-5--3-2--4-5--3-2--454--232-------------------------------|
c#--2-3-------2-3-------2-3-------232------------------------------------|


c#-----------------------------------------------------------------------|
g#-----------------------------------------------------------------------|
e------------------------------------------------------------------------|
b--------5-4-------5-4-------5-4-------454-------------------------------|
f#--4-5--3-2--4-5--3-2--4-5--3-2--454--232-------------------------------|
c#--2-3-------2-3-------2-3-------232------------------------------------|



c#-----------------------------------------------------------------------|
g#-----------------------------------------------------------------------|
e------------------------------------------------------------------------|
b--------5-4-------5-4---------------------------------------------------|
f#--4-5--3-2--4-5--3-2---5--4--2--4--5--4--2--4--------------------------|
c#--2-3-------2-3--------3--2--0--2--3--2--0--2--------------------------|
Добавлено: 17.03.2012
Вам также может быть интересно:
Другие материалы по этой песне:
  • Аккорды и текст

Страница создана 17.03.2012
http://primanota.ru/putrid-pile/the-gorebox-chords.htm
Привет, Гость.
Предлагаем пройти революционный курс по гитаре.
Подарок от PrimaNota.Ru, забирай!