PrimaNota.ru - самый крупный в мире бесплатный архив песенных текстов, аккордов, табулатур и нот


The Pussyfoot - Mr Hyde - бас-таба, видео

Регистрация Запомнить меня
Войти через:  Facebook Google Twitter Vk Yandex Mail.ru

The Pussyfoot - Mr Hyde - бас-таба, видео

Печатать
Просмотров: 20
Tabbed by: 6METAL6BASSIST6
E-mail: petergriffinav@gmail.com

Tuning: EADG

G|----------------------------------------------------------------|
D|----------------------------------------------------------------| x2
A|3---------------3-----3-----3---3---------------3-----3-----3---|
E|----------------------------------------------------------------|

0:09

G|----------------------------------------------------------------|
D|----------------3-----2-------------------------3-----2---------| x3
A|3---------------------------3---3---------------------------3---|
E|----------------------------------------------------------------|

G|----------------------------------------------------------------|
D|----------------3-----2-------------------------3---2-----------|
A|3---------------------------3---3---------------------------3---|
E|----------------------------------------------------------------|

G|----------------------------------------------------------------|
D|----------------3---2---------------------------3---2-----------|
A|3---3-----------------------3---3---------------------------3---|
E|----------------------------------------------------------------|

G|----------------------------------------------------------------|
D|----------------3---2---------------------------3---2-----------| x3
A|3---------------------------3---3---------------------------3---|
E|----------------------------------------------------------------|

0:39

G|----------------------------------------------------------------|
D|----------------------------------------------------------------|
A|5-------3-------2-------0---------------0-------2-------3-------|
E|--------------------------------3-------------------------------|

G|----------------------------------------------------------------|
D|----------------------------------------------------------------|
A|5-------3-------2-------0---------------0-------2-------5---3---|
E|--------------------------------3-------------------------------|

G|----------------------------------------------------------------|
D|----------------------------------------------------------------|
A|----------------3---3-------3-------------------3---3-------0-/-|
E|----------------------------------------------------------------|

G|------------2-------0-------------------------------------------|
D|--------2-----------------------2-------------------------------|
A|3---------------------------3-----------------------------------|
E|----------------------------------------------------------------|

0:56

G|----------------------------------------------------------------|
D|----------------------------------------------------------------|
A|5-------3-------2-------0---------------0-------2-------3-------|
E|--------------------------------3-------------------------------|

G|----------------------------------------------------------------|
D|----------------------------------------------------------------|
A|5-------3-------2-------0---------------0-------2-------5---3---|
E|--------------------------------3-------------------------------|

G|----------------------------------------------------------------|
D|----------------------------------------------------------------|
A|------------3---3-----------3---------------3---3-----------3---|
E|----------------------------------------------------------------|

G|----------------------------------------------------------------|
D|----------------------------------------------------------------|
A|------------3---3---------------3---------------3---------------|
E|----------------------------------------------------------------|

1:08

G|----------------------------------------------------------------|
D|----------------3-----2-------------------------3-----2---------|
A|3---------------------------3---3---------------------------3---|
E|----------------------------------------------------------------|

G|----------------------------------------------------------------|
D|----------------3---2---------------------------3-----2---------|
A|3---------------------------3---3---------------------------3---|
E|----------------------------------------------------------------|

G|----------------------------------------------------------------|
D|----------------3-----2-------------------------3---2-----------|
A|3---------------------------3---3---------------------------3---|
E|----------------------------------------------------------------|

G|----------------------------------------------------------------|
D|----------------3-----2-------------------------3---2-----------|
A|3---------------------------3---3---------------------------3---|
E|----------------------------------------------------------------|

G|----------------------------------------------------------------|
D|----------------3---2---------------------------3---2-----------| x4
A|3---------------------------3---3---------------------------3---|
E|----------------------------------------------------------------|

1:38

G|----------------------------------------------------------------|
D|----------------------------------------------------------------|
A|5-------3-------2-------0---------------0-------2-------3-------|
E|--------------------------------3-------------------------------|

G|----------------------------------------------------------------|
D|----------------------------------------------------------------|
A|5-------3-------2-------0---------------0-------2-------5---3---|
E|--------------------------------3-------------------------------|

G|----------------------------------------------------------------|
D|----------------------------------------------------------------|
A|----------------3---3-------3-------------------3---3-------0-/-|
E|----------------------------------------------------------------|

G|------------2-------0-------------------------------------------|
D|--------2-----------------------2-------------------------------|
A|3---------------------------3-----------------------------------|
E|----------------------------------------------------------------|

1:52

G|----------------------------------------------------------------|
D|----------------------------------------------------------------|
A|5-------3-------2-------0---------------0-------2-------3-------|
E|--------------------------------3-------------------------------|

G|----------------------------------------------------------------|
D|----------------------------------------------------------------|
A|5-------3-------2-------0---------------0-------2-------5---3---|
E|--------------------------------3-------------------------------|

G|----------------------------------------------------------------|
D|----------------------------------------------------------------|
A|----------------3---3-------3-------------------3---3-------3---|
E|----------------------------------------------------------------|

G|----------------------------------------------------------------|
D|----------------------------------------------------------------|
A|----------------3---3-----------3---------------3---3-----------|
E|----------------------------------------------------------------|

2:07

G|----------------------------------------------------------------|
D|----------------------------------------------------------------|
A|3---------------3---3-------3---3-----------3---3---3-----------|
E|----------------------------------------------------------------|

G|----------------------------------------------------------------|
D|----------------------------------------------------------------| x2
A|3-----------3---3---3-----------3-----------3---3---3-----------|
E|----------------------------------------------------------------|

G|----------------------------------------------------------------|
D|----------------------------------------------------------------|
A|3-----------3---3---3-----------3-----------3---3---3-------/---|
E|----------------------------------------------------------------|

G|----------------------------------------------------------------|
D|8-------6-------6-------1-------3-------1-------0-------3-------|
A|----------------------------------------------------------------|
E|----------------------------------------------------------------|

G|--------------------------------|
D|--------------------------------|
A|3-------------------------------|
E|--------------------------------|
Добавлено: 07.06.2016
Другие материалы по этой песне:
  • Аккорды и текст

Страница создана 07.06.2016
http://primanota.ru/pussyfoot/mr-hyde-chords.htm
Привет, Гость.
Предлагаем пройти революционный курс по гитаре.
Подарок от PrimaNota.Ru, забирай!