PrimaNota.ru - самый крупный в мире бесплатный архив песенных текстов, аккордов, табулатур и нот


Pussycat - Doin La Bamba - бас-таба, видео

Регистрация Запомнить меня
Войти через:  Facebook Google Twitter Vk Yandex Mail.ru

Pussycat - Doin La Bamba - бас-таба, видео

Печатать
Просмотров: 107
PUSSYCAT - DOIN' LA BAMBA

Riff 1:

G----------------4-----------------------|
D--------4-7-5-7---7----------5-5-4------|
A----5--------------------4-7-------7----|
E-----------------------5----------------|

Riff 2:

G---------------------|
D------4-7-4----------|
A----5-------5--------|
E--------------7-5----|

Riff 3:

G----------------4--------|
D------4-7-4-5-7---5-7----|
A----5--------------------|
E-------------------------|

The song:

Riff 1: 33 times
Riff 2:  1 time
Riff 1:  3 times
Riff 2:  1 time
Riff 3:  4 times
Riff 1: 11 times
Riff 2:  1 time
Riff 1:  3 times
Riff 2:  1 time
Riff 3: Fade till the end
Добавлено: 26.11.2013
Другие материалы по этой песне:
  • Аккорды и текст

Страница создана 26.11.2013
http://primanota.ru/pussycat/doin-la-bamba-chords.htm
Привет, Гость.
Предлагаем пройти революционный курс по гитаре.
Подарок от PrimaNota.Ru, забирай!