PrimaNota.ru - самый крупный в мире бесплатный архив песенных текстов, аккордов, табулатур и нот


Pussycat And The Dirty Johnsons - Sort Yourself Out - таба, видео

Регистрация Запомнить меня
Войти через:  Facebook Google Twitter Vk Yandex Mail.ru

Pussycat And The Dirty Johnsons - Sort Yourself Out - таба, видео

Печатать
Просмотров: 57
-------------------------------------------------------------------------------
              Sort Yourself Out - Pussycat and the Dirty Johnsons
-------------------------------------------------------------------------------
Official band website @ http://thedirtyjohnsons.com/

Tabbed by: Ricky Thomson
E-mail: warzone@gmx.co.uk

Tuning: Standard


[intro]
e||---------------------------|| x8
B||---------------------------||
G||---------------------------||
D||---------------------------||
A||--7-5-0-------7-5-0--------||
E||--------8-8---------8-8-5--||


[verse one]
e|-----------------------------------------------------|
B|-----------------------------------------------------|
G|--5---5\------5-5-3~~~~~---5---5\------5-5-10b-10-8--|
D|--5---5\------5-5-3~~~~~---5---5\------5-5-10b-10-8--|
A|-----------------------------------------------------|
E|-----------------------------------------------------|

e|-----------------------------------------------------|
B|-----------------------------------------------------|
G|--5---5\------5-5-3~~~~~---5---5\------5-5-10b~~~~~--|
D|--5---5\------5-5-3~~~~~---5---5\------5-5-10b~~~~~--|
A|-----------------------------------------------------|
E|-----------------------------------------------------|


[chorus]
e||------------------------------------|| x4
B||------------------------------------||
G||----------------------------5-------||
D||--5/7-7-7-5/7-7-7-5/7-7-5---5-------||
A||--5/7-7-7-5/7-7-7-5/7-7-5---3-------||
E||--3/5-5-5-3/5-5-5-3/5-5-3-----------||


[riff]
e||---------------------------|| x4
B||---------------------------||
G||---------------------------||
D||---------------------------||
A||--7-5-0-------7-5-0--------||
E||--------8-8---------8-8-5--||


[verse two]
e|-----------------------------------------------------|
B|-----------------------------------------------------|
G|--5---5\------5-5-3~~~~~---5---5\------5-5-10b-10-8--|
D|--5---5\------5-5-3~~~~~---5---5\------5-5-10b-10-8--|
A|-----------------------------------------------------|
E|-----------------------------------------------------|

e|-----------------------------------------------------|
B|-----------------------------------------------------|
G|--5---5\------5-5-3~~~~~---5---5\------5-5-10b~~~~~--|
D|--5---5\------5-5-3~~~~~---5---5\------5-5-10b~~~~~--|
A|-----------------------------------------------------|
E|-----------------------------------------------------|


[chorus]
e||------------------------------------|| x4
B||------------------------------------||
G||----------------------------5-------||
D||--5/7-7-7-5/7-7-7-5/7-7-5---5-------||
A||--5/7-7-7-5/7-7-7-5/7-7-5---3-------||
E||--3/5-5-5-3/5-5-5-3/5-5-3-----------||


[bridge]
e|------------------------------------|
B|------------------------------------|
G|------------------------------------|
D|--5--------------8------------------|
A|--5--------------8------------------|
E|--3--------------6------------------|

pm[ . . . . . . . . . . . . . . . .   ]
e|------------------------------------|
B|------------------------------------|
G|------------------------------------|
D|------------------------------------|
A|--5-5-7-5-5-5-7-5-5-5-7-5-5-5-7-0---|
E|------------------------------------|

pm[ . . . . . . . . . . . . . . . .   ]
e|------------------------------------|
B|------------------------------------|
G|------------------------------------|
D|------------------------------------|
A|--2-2-3-2-2-2-3-2-2-2-3-2-2-2-3-0---|
E|------------------------------------|


e|------------------------------------|
B|------------------------------------|
G|------------------------------------|
D|--8--------------5------------------|
A|--8--------------5------------------|
E|--6--------------3------------------|

e|------------------------------------|
B|------------------------------------|
G|------------------------------------|
D|--5--------------5------------------|
A|--5--------------5------------------|
E|--3--------------3------------------|


[chorus]
e||------------------------------------|| x4
B||------------------------------------||
G||----------------------------5-------||
D||--5/7-7-7-5/7-7-7-5/7-7-5---5-------||
A||--5/7-7-7-5/7-7-7-5/7-7-5---3-------||
E||--3/5-5-5-3/5-5-5-3/5-5-3-----------||


e|------------------------------------|
B|------------------------------------|
G|------------------------------------|
D|--5--------------8------------------|
A|--5--------------8------------------|
E|--3--------------6------------------|

e||------------------------------------|| x4
B||------------------------------------||
G||----------------------------555-----||
D||--5/7-7-7-5/7-7-7-5/7-7-5---555-----||
A||--5/7-7-7-5/7-7-7-5/7-7-5---333-----||
E||--3/5-5-5-3/5-5-5-3/5-5-3-----------||




************************************

| /   slide up
| \   slide down
| h   hammer-on
| p   pull-off
| ~   vibrato
| +   harmonic
| x   Mute note
| b   Bend
| pb  Pre-bend
| br  Bend release
| pbr Pre-bend release
| brb Bend release bend

************************************
Добавлено: 31.03.2016
Другие материалы по этой песне:
  • Аккорды и текст

Страница создана 31.03.2016
http://primanota.ru/pussycat-and-the-dirty-johnsons/sort-yourself-out-chords.htm
Привет, Гость.
Предлагаем пройти революционный курс по гитаре.
Подарок от PrimaNota.Ru, забирай!