PrimaNota.ru - самый крупный в мире бесплатный архив песенных текстов, аккордов, табулатур и нот


Pussycat And The Dirty Johnsons - Mirtazapine - таба, видео

Регистрация Запомнить меня
Войти через:  Facebook Google Twitter Vk Yandex Mail.ru

Pussycat And The Dirty Johnsons - Mirtazapine - таба, видео

Печатать
Просмотров: 90
Уроки эстрадного вокала в Санкт-Петербурге
-------------------------------------------------------------------------------
                             Mirtazapine - Pussycat & the Dirty Johnsons
-------------------------------------------------------------------------------
Tabbed by:Dead_Emperor
E-mail: kyeo41@hotmail.co.uk

Tuning: Standard (E A D G B e)

Intro/Verse:

e|---------------------------------------------------------------------------|
B|---------------------------------------------------------------------------|
G|---------------------------------------------------------------------------|
D|---------------------------------------------------------------------------|
A|-2-2----2-2---2--2-2----2-2----2-2---2-------------------------------------|
E|-0-0-3--0-0-3-0--0-0-3--0-0-3--0-0-3-0-3-----------------------------------|
PM ---    ---   -   ----  ---    ---   -

Last bar of verse:
(Follow the rhythm of the intro, but take out the palm mutes towards the end)

e|---------------------------------------------------------------------------|
B|---------------------------------------------------------------------------|
G|---------------------------------------------------------------------------|
D|---------------------------------------------------------------------------|
A|-2-2----2-2---2--2-2----2-2----2-2---2-------------------------------------|
E|-0-0-3--0-0-3-0--0-0-3--0-0-3--0-0-3-0-3-----------------------------------|
PM ---    ---   -  ---    ---    

Chorus:
 (I'm dead, I'm dead...)
e|---------------------------------------------------------------------------|
B|---------------------------------------------------------------------------|
G|---------------------------------------------------------------------------|
D|-9--8--2-2---2-2---------9--8--2-2---2-2-----------------------------------|
A|-9--8--2-2---2-2---------9--8--2-2---2-2-----------------------------------|
E|-7--6--0-0-3-0-0-3-0-3---7--6--0-0-3-0-0-3-0-3-----------------------------|

Bridge:

e|---------------------------------------------------------------------------|
B|---------------------------------------------------------------------------|
G|------------------------------------------------12-------------------------|
D|------------------------------------------------12-------------------------|
A|------------------------------------------------10-------------------------|
E|-0-0-3-0-0-3-0-0-3-0-0-3/12---0-0-3-0-0-3-0-0-3/---------------------------|

e|---------------------------------------------------------------------------|
B|---------------------------------------------------------------------------|
G|---------------------------------------------------------------------------|
D|---------------------------------------------------------------------------|
A|----------------------------------------------2----------------------------|
E|--0-0-3-0-0-3-0-0-3-0-0-3/12^-11-10-9-8-7-6-3-0----------------------------|

Repeat this twice^.

(Just when I'm feeling good...

e|---------------------------------------------------------------------------|
B|---------------------------------------------------------------------------|
G|---------------------------------------------------------------------------|
D|---------------------------------------------------------------------------|
A|---------------------------------------------------------------------------|
E|-3-0-0-0-0-0-0-0-0-0-0-0-0-0-0-0-0-0-0-0-0-0-0-0-0-0-0-0-0-0-0-------------|
PM   ----------------------------------------------------------- 

Repeat Chorus.


************************************

| /   slide up
| \   slide down
| h   hammer-on
| p   pull-off
| ~   vibrato
| +   harmonic
| x   Mute note
| b   Bend
| pb  Pre-bend
| br  Bend release
| pbr Pre-bend release
| brb Bend release bend

************************************
Добавлено: 31.03.2016
Вам также может быть интересно:
Другие материалы по этой песне:
  • Аккорды и текст

Страница создана 31.03.2016
http://primanota.ru/pussycat-and-the-dirty-johnsons/mirtazapine-chords.htm
Привет, Гость.
Предлагаем пройти революционный курс по гитаре.
Подарок от PrimaNota.Ru, забирай!