PrimaNota.ru - самый крупный в мире бесплатный архив песенных текстов, аккордов, табулатур и нот


Pussycat And The Dirty Johnsons - Livin With Mum And Dad - таба, видео

Регистрация Запомнить меня
Войти через:  Facebook Google Twitter Vk Yandex Mail.ru

Pussycat And The Dirty Johnsons - Livin With Mum And Dad - таба, видео

Печатать
Просмотров: 56
-------------------------------------------------------------------------------
   Livin' With Mum and Dad - Pussycat and the Dirty Johnsons
-------------------------------------------------------------------------------
Tabbed by:Dead_Emperor
E-mail: 

Tuning: Standard (E A D G B e)

Intro:
e|--------------------------------------------|
B|--------------------------------------------|
G|--------------------------------------------|
D|-2-2-2-2-2-2-2-2-2--------------------------|
A|-2-2-2-2-2-2-2-2-2--------------------------|
E|-0-0-0-0-0-0-0-0-0--------------------------|
     PM-----------

Chorus: 
(I'm still livin' with...)
e|---------------------------------------------------------------------------|
B|---------------------------------------------------------------------------|
G|-2--1-1-1-1-1---2--1-1-1-1-1--2--1-1-1-1-1--2--1-1-1-1-1-------------------|
D|-2--2-2-2-2-2---2--2-2-2-2-2--2--2-2-2-2-2--2--2-2-2-2-2-------------------|
A|-0--2-2-2-2-2---0--2-2-2-2-2--0--2-2-2-2-2--0--2-2-2-2-2-------------------|
E|----0-0-0-0-0------0-0-0-0-0-----0-0-0-0-0-----0-0-0-0-0-------------------|
       ^-- with light tremolo

Verse:
(Hey why don't you come over...)
e|---------------------------------------------------------------------------|
B|---------------------------------------------------------------------------|
G|---------------------------------------------------------------------------|
D|-7-7-7-7-7-7-7-7-7-7-7-----7-7-----7-7-7-7-7-7-7-7-7-7-7-----7-7-----------|
A|-7-7-7-7-7-7-7-7-7-7-7-7-7----7-7--7-7-7-7-7-7-7-7-7-7-7-7-7-----7-7-------|
E|-5-5-5-5-5-5-5-5-5-5-5-------------5-5-5-5-5-5-5-5-5-5-5-------------------|
 Pm-----   ------------------------  -----   -------------------------

e|--------------------------------------------------------------------------|
B|--------------------------------------------------------------------------|
G|--------------------------------------------------------------------------|
D|-7-7-7-7-7-7-7-7-7-7-7-----7-7-----7-7-7-7-7-7-7-7-7-7-7-7-x-6-x-5---------|
A|-7-7-7-7-7-7-7-7-7-7-7-7-7----7-7--7-7-7-7-7-7-7-7-7-7-7-7-x-6-x-5---------|
E|-5-5-5-5-5-5-5-5-5-5-5-------------5-5-5-5-5-5-5-5-5-5-5-5-x-4-x-3---------|
 Pm-----   ------------------------  -----   -------------   -   -

e|----------------------------------------------------------------------------|
B|----------------------------------------------------------------------------|
G|----------------------------------------------------------------------------|
D|-5-5-5-5-5-5-5-5-5-5-5-----5-5------5-5-5-5-5-5-5-5-5-5-5-x-6-x-7-----------|
A|-5-5-5-5-5-5-5-5-5-5-5-5-5-----5-5--5-5-5-5-5-5-5-5-5-5-5-x-6-x-7-----------|
E|-3-3-3-3-3-3-3-3-3-3-3--------------3-3-3-3-3-3-3-3-3-3-3-x-4-x-5-----------|
 Pm------  -----------------------------------------------          
  
e|----------------------------------------------------------|
B|----------------------------------------------------------|
G|----------------------------------------------------------|
D|-7-7-7-7-7-7-7-7-7-7-7-7-7--------------------------------|
A|-7-7-7-7-7-7-7-7-7-7-7-7-7--------------------------------|
E|-5-5-5-5-5-5-5-5-5-5-5-5-5--------------------------------|
 Pm ----------------

Repeat chorus:

e|---------------------------------------------------------------------------|
B|---------------------------------------------------------------------------|
G|-2--1-1-1-1-1---2--1-1-1-1-1--2--1-1-1-1-1--2--1-1-1-1-1-------------------|
D|-2--2-2-2-2-2---2--2-2-2-2-2--2--2-2-2-2-2--2--2-2-2-2-2-------------------|
A|-0--2-2-2-2-2---0--2-2-2-2-2--0--2-2-2-2-2--0--2-2-2-2-2-------------------|
E|----0-0-0-0-0------0-0-0-0-0-----0-0-0-0-0-----0-0-0-0-0-------------------|
       ^-- with light tremolo

Repeat verse:

e|---------------------------------------------------------------------------|
B|---------------------------------------------------------------------------|
G|---------------------------------------------------------------------------|
D|-7-7-7-7-7-7-7-7-7-7-7-----7-7-----7-7-7-7-7-7-7-7-7-7-7-----7-7-----------|
A|-7-7-7-7-7-7-7-7-7-7-7-7-7----7-7--7-7-7-7-7-7-7-7-7-7-7-7-7-----7-7-------|
E|-5-5-5-5-5-5-5-5-5-5-5-------------5-5-5-5-5-5-5-5-5-5-5-------------------|
 Pm-----   ------------------------  -----   -------------------------

e|--------------------------------------------------------------------------|
B|--------------------------------------------------------------------------|
G|--------------------------------------------------------------------------|
D|-7-7-7-7-7-7-7-7-7-7-7-----7-7-----7-7-7-7-7-7-7-7-7-7-7-7-x-6-x-5---------|
A|-7-7-7-7-7-7-7-7-7-7-7-7-7----7-7--7-7-7-7-7-7-7-7-7-7-7-7-x-6-x-5---------|
E|-5-5-5-5-5-5-5-5-5-5-5-------------5-5-5-5-5-5-5-5-5-5-5-5-x-4-x-3---------|
 Pm-----   ------------------------  -----   -------------   -   -

e|----------------------------------------------------------------------------|
B|----------------------------------------------------------------------------|
G|----------------------------------------------------------------------------|
D|-5-5-5-5-5-5-5-5-5-5-5-----5-5------5-5-5-5-5-5-5-5-5-5-5-x-6-x-7-----------|
A|-5-5-5-5-5-5-5-5-5-5-5-5-5-----5-5--5-5-5-5-5-5-5-5-5-5-5-x-6-x-7-----------|
E|-3-3-3-3-3-3-3-3-3-3-3--------------3-3-3-3-3-3-3-3-3-3-3-x-4-x-5-----------|
 Pm------  -----------------------------------------------          
  
e|----------------------------------------------------------|
B|----------------------------------------------------------|
G|----------------------------------------------------------|
D|-7-7-7-7-7-7-7-7-7-7-7-7-7--------------------------------|
A|-7-7-7-7-7-7-7-7-7-7-7-7-7--------------------------------|
E|-5-5-5-5-5-5-5-5-5-5-5-5-5--------------------------------|
 Pm ----------------

Repeat chorus:

e|---------------------------------------------------------------------------|
B|---------------------------------------------------------------------------|
G|-2--1-1-1-1-1---2--1-1-1-1-1--2--1-1-1-1-1--2--1-1-1-1-1-------------------|
D|-2--2-2-2-2-2---2--2-2-2-2-2--2--2-2-2-2-2--2--2-2-2-2-2-------------------|
A|-0--2-2-2-2-2---0--2-2-2-2-2--0--2-2-2-2-2--0--2-2-2-2-2-------------------|
E|----0-0-0-0-0------0-0-0-0-0-----0-0-0-0-0-----0-0-0-0-0-------------------|
       ^-- with light tremolo
End outro:

e|-------------------------------------------------------------------|
B|-------------------------------------------------------------------|
G|-2--2--------------------------------------------------------------|
D|-2--2-2-2-2-2-2-2-2-2-2-2-2-2-2-2-2--------------------------------|
A|-0--0-2-2-2-2-2-2-2-2-2-2-2-2-2-2-2--------------------------------|
E|------0-0-0-0-0-0-0-0-0-0-0-0-0-0-0--------------------------------|

http://thedirtyjohnsons.com/#/livin-with-mum-and-dad/4577498125

************************************

| /   slide up
| \   slide down
| h   hammer-on
| p   pull-off
| ~   vibrato
| +   harmonic
| x   Mute note
| b   Bend
| pb  Pre-bend
| br  Bend release
| pbr Pre-bend release
| brb Bend release bend

************************************
Добавлено: 31.03.2016
Другие материалы по этой песне:
  • Аккорды и текст

Страница создана 31.03.2016
http://primanota.ru/pussycat-and-the-dirty-johnsons/livin-with-mum-and-dad-chords.htm
Привет, Гость.
Предлагаем пройти революционный курс по гитаре.
Подарок от PrimaNota.Ru, забирай!