PrimaNota.ru - самый крупный в мире бесплатный архив песенных текстов, аккордов, табулатур и нот


Pussycat And The Dirty Johnsons - Hell Bent - таба, видео

Регистрация Запомнить меня
Войти через:  Facebook Google Twitter Vk Yandex Mail.ru

Pussycat And The Dirty Johnsons - Hell Bent - таба, видео

Печатать
Просмотров: 72
-------------------------------------------------------------------------------
                 Hell Bent - Pussycat and the Dirty Johnsons
-------------------------------------------------------------------------------
Official band website @ http://thedirtyjohnsons.com/

Tabbed by: Ricky Thomson
E-mail: warzone@gmx.co.uk

Tuning: Standard


[intro]
e||-------------------------------------------|| 
B||-------------------------------------------||
G||-------------------------------------------|| x2
D||-------------------------------------------||
A||-------------------------------------------||
E||--0-0-11h12-0-0-11h12-0-0-11h12-0-0-11h12--||


[verse one]
e||-------------------------------------------|| 
B||-------------------------------------------||
G||-------------------------------------------|| x6
D||-------------------------------------------||
A||-------------------------------------------||
E||--0-0-11h12-0-0-11h12-0-0-11h12-0-0-11h12--||


[chorus]
e||----------------------------------------------------------|| 
B||----------------------------------------------------------||
G||--6-x-6-x-6/9999-6-x-6-x-6/9999-6-x-6-x-6/9999-6-6-6------|| x2
D||--6-x-6-x-6/9999-6-x-6-x-6/9999-6-x-6-x-6/9999-6-6-6------||
A||--4-x-4-x-4/7777-4-x-4-x-4/7777-4-x-4-x-4/7777-4-4-4------||
E||----------------------------------------------------------||


[verse two]
e||-------------------------------------------|| 
B||-------------------------------------------||
G||-------------------------------------------|| x4
D||-------------------------------------------||
A||-------------------------------------------||
E||--0-0-11h12-0-0-11h12-0-0-11h12-0-0-11h12--||


[chorus]
e||----------------------------------------------------------|| 
B||----------------------------------------------------------||
G||--6-x-6-x-6/9999-6-x-6-x-6/9999-6-x-6-x-6/9999-6-6-6------|| x2
D||--6-x-6-x-6/9999-6-x-6-x-6/9999-6-x-6-x-6/9999-6-6-6------||
A||--4-x-4-x-4/7777-4-x-4-x-4/7777-4-x-4-x-4/7777-4-4-4------||
E||----------------------------------------------------------||


[verse three]
e||-------------------------------------------|| 
B||-------------------------------------------||
G||-------------------------------------------|| x6
D||-------------------------------------------||
A||-------------------------------------------||
E||--0-0-11h12-0-0-11h12-0-0-11h12-0-0-11h12--||


[bridge]
e|---------------------------------------------------|
B|---------------------------------------------------|
G|--9-9-9-66-77-9-9-9-66-77-9-9-9-66-77-9-9-9-66-77--|
D|--9-9-9-66-77-9-9-9-66-77-9-9-9-66-77-9-9-9-66-77--|
A|--7-7-7-44-55-7-7-7-44-55-7-7-7-44-55-7-7-7-44-55--|
E|---------------------------------------------------|

e|---------------------------------------------------|
B|---------------------------------------------------|
G|--9-9-9-66777-9-9-9-66-77-9-9-9-66777-9-9-9-66-77--|
D|--9-9-9-66777-9-9-9-66-77-9-9-9-66777-9-9-9-66-77--|
A|--7-7-7-44555-7-7-7-44-55-7-7-7-44555-7-7-7-44-55--|
E|---------------------------------------------------|

pm[  .   .   .   .   .   .   .   .   .   .   .   .   .   .   .   .  ]
e||-----------------------------------------------------------------|| 
B||-----------------------------------------------------------------||
G||-----------------------------------------------------------------||
D||------5---------------5---------------5---------------5----------|| x2
A||--7-------8---9---7-------8---9---7-------8---9---7-------8---9--||
E||-----------------------------------------------------------------||

e||-----------------------------------------------------------------|| 
B||-----------------------------------------------------------------||
G||-----------------------------------------------------------------|| x2
D||------5---------------5---------------5---------------5----------||
A||--7-------8---9---7-------8---9---7-------8---9---7-------8---9--||
E||-----------------------------------------------------------------||


e|-----------------------------------------------------------------| 
B|-----------------------------------------------------------------|
G|-----------------------------------------------------------------|
D|------5---------------5------------------------------------------|
A|--7-------8---9---7-------8---9---7~~~~~~~~~~~~~~~~~~~~~~~~~~~~--|
E|-----------------------------------------------------------------|


[outro]
e||-------------------------------------------|| 
B||-------------------------------------------||
G||-------------------------------------------|| x6
D||-------------------------------------------||
A||-------------------------------------------||
E||--0-0-11h12-0-0-11h12-0-0-11h12-0-0-11h12--||

e|-------------------------------------------| 
B|-------------------------------------------|
G|-------------------------------------------|
D|--2-2-----------------2-2------------------|
A|--2-2-----------------2-2------------------|
E|--0-0-----------------0-0------------------|


************************************

| /   slide up
| \   slide down
| h   hammer-on
| p   pull-off
| ~   vibrato
| +   harmonic
| x   Mute note
| b   Bend
| pb  Pre-bend
| br  Bend release
| pbr Pre-bend release
| brb Bend release bend

************************************
Добавлено: 31.03.2016
Другие материалы по этой песне:
  • Аккорды и текст

Страница создана 31.03.2016
http://primanota.ru/pussycat-and-the-dirty-johnsons/hell-bent-chords.htm
Привет, Гость.
Предлагаем пройти революционный курс по гитаре.
Подарок от PrimaNota.Ru, забирай!