PrimaNota.ru - самый крупный в мире бесплатный архив песенных текстов, аккордов, табулатур и нот


Pussycat And The Dirty Johnsons - Burying The Bodies - таба, видео

Регистрация Запомнить меня
Войти через:  Facebook Google Twitter Vk Yandex Mail.ru

Pussycat And The Dirty Johnsons - Burying The Bodies - таба, видео

Печатать
Просмотров: 43
-------------------------------------------------------------------------------
                             SONG NAME - Band Name
-------------------------------------------------------------------------------
Tabbed by:Dead_Emperor
E-mail: kyeo41@hotmail.co.uk

Tuning: Standard (E A D G B e)

Intro:
e|----------------------|
B|----------------------|
G|----------------------|
D|-6--10/9--2-----------|
A|-6--10/9--2-----------|
E|-4--8/-7--0-----------|

e|---------------------------------------------------------------------------|
B|---------------------------------------------------------------------------|
G|---------------------------------------------------------------------------|
D|---------------------------------------------------------------------------|
A|-6-6-6-6-6-6---10-10-10--9-9-9-----2-2-2-2-2-2---10-10-10--9-9-9-----------|
E|-4-4-4-4-4-4---8--8--8---7-7-7-----0-0-0-0-0-0---8--8--8---7-7-7-----------|
  PM----------   -------   ------    -----------   -------   -----

Verse:
(You better mind your business...)
e|---------------------------------------------------------------------------|
B|---------------------------------------------------------------------------|
G|---------------------------------------------------------------------------|
D|---------------------------------------------------------------------------|
A|---------------------------------------------------------------------------|
E|-4-4-4-4-4-4---8--8--8---7-7-7-----4-4-4-4-4-4---8--8--8---7-7-7-----------|
  PM----------   -------   ------    -----------   -------   -----

(Hand in cold hand.../Run rabbit run...)
e|---------------------------------------------------------------------------|
B|---------------------------------------------------------------------------|
G|---------------------------------------------------------------------------|
D|-6-6-6-6-6-6---10-10-10--9-9-9-----2-2-2-2-2-2---10-10-10--9-9-9-----------|
A|-6-6-6-6-6-6---10-10-10--9-9-9-----2-2-2-2-2-2---10-10-10--9-9-9-----------|
E|-4-4-4-4-4-4---8--8--8---7-7-7-----0-0-0-0-0-0---8--8--8---7-7-7-----------|
  PM----------   -------   ------    -----------   -------   -----

Chorus:
(I didn't think anyone.../You better mind...)
e|---------------------------------------------------------------------------|
B|---------------------------------------------------------------------------|
G|---------------------------------------------------------------------------|
D|-6-6-6-6-6-6---10-10-10--9-9-9-----2-2-2-2-2-2---10-10-10--9-9-9-----------|
A|-6-6-6-6-6-6---10-10-10--9-9-9-----2-2-2-2-2-2---10-10-10--9-9-9-----------|
E|-4-4-4-4-4-4---8--8--8---7-7-7-----0-0-0-0-0-0---8--8--8---7-7-7-----------|

(Repeat verse)

(Repeat chorus)

Solo w/Fuzz:


e|---------------------------------------------------------------------------|
B|-------5^--------------5^-------------5^--------------5^-------------------|
G|-1-5\4----5-4----1-5\4----5-4---1-5\4----5-4----1-5\4----5-4---------------|
D|---------------------------------------------------------------------------|
A|---------------------------------------------------------------------------|
E|---------------------------------------------------------------------------|

(Repeat chorus)

http://thedirtyjohnsons.com/#/burying-the-bodies/4577498001


************************************

| /   slide up
| \   slide down
| h   hammer-on
| p   pull-off
| ~   vibrato
| +   harmonic
| x   Mute note
| b   Bend
| pb  Pre-bend
| br  Bend release
| pbr Pre-bend release
| brb Bend release bend

************************************
Добавлено: 31.03.2016
Другие материалы по этой песне:
  • Аккорды и текст

Страница создана 31.03.2016
http://primanota.ru/pussycat-and-the-dirty-johnsons/burying-bodies-chords.htm
Привет, Гость.
Предлагаем пройти революционный курс по гитаре.
Подарок от PrimaNota.Ru, забирай!