PrimaNota.ru - самый крупный в мире бесплатный архив песенных текстов, аккордов, табулатур и нот


Purson - Wake Up Sleepy Head - бас-таба, видео

Регистрация Запомнить меня
Войти через:  Facebook Google Twitter Vk Yandex Mail.ru

Purson - Wake Up Sleepy Head - бас-таба, видео

Печатать
Просмотров: 146
Уроки эстрадного вокала в Санкт-Петербурге
Tabbed by: 6METAL6BASSIST6
E-mail: petergriffinav@gmail.com

Tuning: EADG

0:20

G|----------------------------------------------------------------|
D|5---------------2-----------------------------------------------|
A|--------------------------------0-----------0---2---------------|
E|----------------------------------------------------------------|

G|----------------------------------------------------------------|
D|5-------4-----------------------------------0---2-----------4---|
A|----------------2---------------3-------------------------------|
E|----------------------------------------------------------------|

G|4-------------------------------|
D|-----------4--------------------|
A|---------------2----------------|
E|--------------------------------|

0:38

G|----------------------------------------------------------------|
D|2-------------------------------4---------------5---------------|
A|----------------3-----------------------------------------------|
E|----------------------------------------------------------------|

G|----------------------------------------------------------------|
D|----------------2-----------------------------------------------|
A|3-------------------------------2-------------------------------|
E|----------------------------------------------------------------|

G|----------------------------------------------------------------|
D|5---------------2-----------------------------------------------|
A|--------------------------------0-----------0---2---------------|
E|----------------------------------------------------------------|

G|----------------------------------------------------------------|
D|5-------4-----------------------------------0---2-----------4---|
A|----------------2---------------3-------------------------------|
E|----------------------------------------------------------------|

G|4-------------------------------|
D|------------4-------------------|
A|----------------2---------------|
E|--------------------------------|

1:08

G|----------------------------------------------------------------|
D|2-------------------------------4---------------5---------------|
A|----------------3-----------------------------------------------|
E|----------------------------------------------------------------|

G|----------------------------------------------------------------|
D|----------------2-----------------------------------------------|
A|3-------------------------------2-------------------------------|
E|----------------------------------------------------------------|

G|----------------------------------------------------------------|
D|5---------------2-----------------------------------------------|
A|--------------------------------0-----------0---2---------------|
E|----------------------------------------------------------------|

G|----------------------------------------------------------------|
D|5-------4-------------------------------------------------------|
A|----------------2---------------3---------------7---------------|
E|----------------------------------------------------------------|

G|--------------------------------|
D|9---------------9---------------|
A|------------9-------------------|
E|--------------------------------|

1:40

G|--------------------------------------------------------9-------|
D|------------9---------------9---------------9---------9-----9---|
A|7---------------7---------------7---------------7---------------|
E|----------------------------------------------------------------|

G|--------------------------------------------------------9-------|
D|------------9---------------9---------------9---------9---------|
A|7---------------7---------------7---------------7---------------|
E|----------------------------------------------------------------|

G|--------------------------------------------------------9-------|
D|------------9---------------9---------------9---------9-----9---| x2
A|7---------------7---------------7---------------7---------------|
E|----------------------------------------------------------------|
Добавлено: 26.08.2015
Другие материалы по этой песне:
  • Аккорды и текст

Страница создана 26.08.2015
http://primanota.ru/purson/wake-up-sleepy-head-chords.htm
Привет, Гость.
Предлагаем пройти революционный курс по гитаре.
Подарок от PrimaNota.Ru, забирай!