PrimaNota.ru - самый крупный в мире бесплатный архив песенных текстов, аккордов, табулатур и нот


Purson - Tragic Catastrophe - бас-таба, видео

Регистрация Запомнить меня
Войти через:  Facebook Google Twitter Vk Yandex Mail.ru

Purson - Tragic Catastrophe - бас-таба, видео

Печатать
Просмотров: 114
Tabbed by: 6METAL6BASSIST6
E-mail: petergriffinav@gmail.com

Tuning: EADG

G|----------------------------------------------------------------|
D|----------------------------------------------------------------|
A|3---------------------------------------------------------------|
E|----------------------------------------------------------------|

G|----------------------------------------------------------------|
D|----------------------------------------------------------------|
A|----------------------------------------------------------------|
E|4---------------------------------------------------------------|

G|----------------------------------------------------------------|
D|----------------------------------------------------------------|
A|----------------------------------------------------------------|
E|6---------------------------------------------------------------|

G|----------------------------------------------------------------|
D|----------------------------------------------------------------|
A|--------------------------------6---------------5---------------|
E|3---------------------------------------------------------------|

G|----------------------------------------------------------------|
D|----------------------------------------------------------------|
A|----------------------------------------------------------------|
E|4-------------------------------------------------------6-------|

G|----------------------------------------------------------------|
D|----------------------------------------------------------------|
A|3-------------------------------------------------------5-------|
E|----------------------------------------------------------------|

G|----------------------------------------------------------------|
D|5---------------------------------------------------------------|
A|--------------------------------------------------------5-------|
E|----------------------------------------------------------------|

G|----------------------------------------------------------------|
D|----------------------------------------------------------------|
A|----------------------------------------------------------------|
E|3---------------------------------------------------------------|

0:25

G|----------------------------------------------------------------|.
D|--------------------------------------------------------5-------|.
A|3---------------------------------------------/-6---------------|.
E|----------------------------------------------------------------|.
                                                                   .
G|----------------------------------------------------------------|.
D|8-------------------------------------------------------5-------|.
A|----------------------------------------------/-6---------------|.
E|----------------------------------------------------------------|.
                                                                   . x2
G|----------------------------------------------------------------|.
D|7-------------------------------------------------------5-------|.
A|----------------------------------------------/-6---------------|.
E|----------------------------------------------------------------|.
                                                                   .
G|----------------------------------------------------------------|.
D|6---------------6---------------5---------------5---3-----------|.
A|--------------------------------------------------------6---5---|.
E|----------------------------------------------------------------|.

0:50

G|----------------------------------------------------------------|.
D|----------------------------------------------------------------|.
A|------------------------6-------------------------------6-------|.
E|4-------4-----/-8---------------4-------4-----/-8---------------|.
                                                                   . x3
G|----------------------------------------------------------------|.
D|------------------------5-------------------------------5-------|.
A|3-------3-----/-6---------------3-------3-----/-6---------------|.
E|----------------------------------------------------------------|.

G|----------------------------------------------------------------|
D|----------------------------------------------------------------|
A|------------------------5-------------------------------5-------|
E|3-------3-----/-7---------------3-------3-----/-7---------------|

G|----------------------------------------------------------------|
D|--------------------------------5---5---5---5---5---5---5-------|
A|------------------------5---------------------------------------|
E|3-------3-----/-7-----------------------------------------------|

1:15

G|----------------------------------------------------------------|
D|------------------------5-------------------------------5-------|
A|3-------3-----/-6---------------3-------3-----/-6---------------|
E|----------------------------------------------------------------|

G|----------------------------------------------------------------|
D|----------------------------------------------------------------|
A|------------------------6-------------------------------6-------|
E|4-------4-----/-8---------------4-------4-----/-8---------------|

G|----------------------------------------------------------------|
D|----------------------------------------------------------------|
A|-----------------------8--------------------------------8-------|
E|6-------6-----/-10--------------6-------6-----/-10--------------|

G|----------------------------------------------------------------|
D|----------------------------------------------------------------|
A|------------------------5-------5-h-6---5-------5-h-6---5-------|
E|3-------3-----/-7-----------------------------------------------|

G|----------------------------------------------------------------|
D|----------------------------------------------------------------|
A|------------------------6-------------------------------6-------|
E|4-------4-----/-8---------------4-------4-----/-8---------------|

G|----------------------------------------------------------------|
D|------------------------5-------------------------------5-------|
A|3-------3-----/-6---------------3-------3-----/-6---------------|
E|----------------------------------------------------------------|

G|----------------------------------------------------------------|
D|----------------------------------------------------------------|
A|------------------------5-------------------------------5-------|
E|3-------3-----/-7---------------3-------3-----/-7---------------|

G|----------------------------------------------------------------|
D|5-------5---5-------5---5---5---5---5-------5---5---5---5-------|
A|----------------------------------------------------------------|
E|----------------------------------------------------------------|

1:40

G|----------------------------------------------------------------|
D|------------------------5-------------------------------5-------|
A|3-------3-----/-6---------------3-------3-----/-6---------------|
E|----------------------------------------------------------------|

G|----------------------------------------------------------------|
D|----------------------------------------------------------------|
A|------------------------6-------------------------------6-------|
E|4-------4-----/-8---------------4-------4-----/-8---------------|

G|----------------------------------------------------------------|
D|----------------------------------------------------------------|
A|-----------------------8--------------------------------8-------|
E|6-------6-----/-10--------------6-------6-----/-10--------------|

G|----------------------------------------------------------------|
D|----------------------------------------------------------------|
A|------------------------5-------5-h-6---5-------5-h-6---5-------|
E|3-------3-----/-7-----------------------------------------------|

G|----------------------------------------------------------------|
D|----------------------------------------------------------------|
A|------------------------6-------------------------------6-------|
E|4-------4-----/-8---------------4-------4-----/-8---------------|

G|----------------------------------------------------------------|
D|------------------------5-------------------------------5-------|
A|3-------3-----/-6---------------3-------3-----/-6---------------|
E|----------------------------------------------------------------|

G|----------------------------------------------------------------|
D|----------------------------------------------------------------|
A|------------------------5-------------------------------5-------|
E|3-------3-----/-7---------------3-------3-----/-7---------------|

G|----------------------------------------------------------------|
D|5---------------------------------------------------------------|
A|----------------------------------------------------------------|
E|----------------------------------------------------------------|

2:05

G|----------------------------------------------------------------|.
D|--------------------------------------------------------5-------|.
A|3---------------------------------------------/-6---------------|.
E|----------------------------------------------------------------|.
                                                                   .
G|----------------------------------------------------------------|.
D|8---------------------------------------------------------------|.
A|----------------------------------------------/-6-------6-------|.
E|----------------------------------------------------------------|.
                                                                   . x2
G|----------------------------------------------------------------|.
D|7-------------------------------------------------------5-------|.
A|----------------------------------------------/-6---------------|.
E|----------------------------------------------------------------|.
                                                                   .
G|----------------------------------------------------------------|.
D|6---------------6---------------5---------------5---3-----------|.
A|--------------------------------------------------------6---5---|.
E|----------------------------------------------------------------|.

2:30

G|----------------------------------------------------------------|.
D|----------------------------------------------------------------|.
A|------------------------6-------------------------------6-------|.
E|4-------4-----/-8---------------4-------4-----/-8---------------|.
                                                                   . x3
G|----------------------------------------------------------------|.
D|------------------------5-------------------------------5-------|.
A|3-------3-----/-6---------------3-------3-----/-6---------------|.
E|----------------------------------------------------------------|.

G|----------------------------------------------------------------|
D|----------------------------------------------------------------|
A|------------------------5-------------------------------5-------|
E|3-------3-----/-7---------------3-------3-----/-7---------------|

G|----------------------------------------------------------------|
D|--------------------------------5---5---5---5---5---5---5-------|
A|------------------------5-----------------------------------5---|
E|3-------3-----/-7-----------------------------------------------|

2:53

G|----------------------------------------------------------------|
D|------------------------5-------------------------------5-------|
A|3-------3-----/-6---------------3-------3-----/-6---------------|
E|----------------------------------------------------------------|

G|----------------------------------------------------------------|
D|----------------------------------------------------------------|
A|------------------------6-------------------------------6-------|
E|4-------4-----/-8---------------4-------4-----/-8---------------|

G|----------------------------------------------------------------|
D|----------------------------------------------------------------|
A|-----------------------8--------------------------------8-------|
E|6-------6-----/-10--------------6-------6-----/-10--------------|

G|----------------------------------------------------------------|
D|----------------------------------------------------------------|
A|------------------------5-------5-h-6---5-------5-h-6---5-------|
E|3-------3-----/-7-----------------------------------------------|

G|----------------------------------------------------------------|
D|----------------------------------------------------------------|
A|------------------------6-------------------------------6-------|
E|4-------4-----/-8---------------4-------4-----/-8---------------|

G|----------------------------------------------------------------|
D|------------------------5-------------------------------5-------|
A|3-------3-----/-6---------------3-------3-----/-6---------------|
E|----------------------------------------------------------------|

G|----------------------------------------------------------------|
D|----------------------------------------------------------------|
A|------------------------5-------------------------------5-------|
E|3-------3-----/-7---------------3-------3-----/-7---------------|

G|----------------------------------------------------------------|
D|5-------------5-5-------------5-5-------------5-5---------------|
A|----------------------------------------------------------------|
E|----------------------------------------------------------------|

3:19

G|----------------------------------------------------------------|
D|------------------------5-------------------------------5-------|
A|3-------3-----/-6---------------3-------3-----/-6---------------|
E|----------------------------------------------------------------|

G|----------------------------------------------------------------|
D|----------------------------------------------------------------|
A|------------------------6-------------------------------6-------|
E|4-------4-----/-8---------------4-------4-----/-8---------------|

G|----------------------------------------------------------------|
D|----------------------------------------------------------------|
A|-----------------------8--------------------------------8-------|
E|6-------6-----/-10--------------6-------6-----/-10--------------|

G|----------------------------------------------------------------|
D|----------------------------------------------------------------|
A|------------------------5-------5-h-6---5-------5-h-6---5-------|
E|3-------3-----/-7-----------------------------------------------|

G|----------------------------------------------------------------|
D|----------------------------------------------------------------|
A|------------------------6-------------------------------6-------|
E|4-------4-----/-8---------------4-------4-----/-8---------------|

G|----------------------------------------------------------------|
D|------------------------5-------------------------------5-------|
A|3-------3-----/-6---------------3-------3-----/-6---------------|
E|----------------------------------------------------------------|

G|----------------------------------------------------------------|
D|----------------------------------------------------------------|
A|------------------------5-------------------------------5-------|
E|3-------3-----/-7---------------3-------3-----/-7---------------|

G|----------------------------------------------------------------|
D|5-----------------------------------------------5---------------|
A|----------------------------------------------------------------|
E|----------------------------------------------------------------|

3:43

G|----------------------------------------------------------------|
D|------------------------5-------------------------------5-------|
A|3-------3-----/-6---------------3-------3-----/-6---------------|
E|----------------------------------------------------------------|

G|----------------------------------------------------------------|
D|----------------------------------------------------------------|
A|------------------------6-------------------------------6-------|
E|4-------4-----/-8---------------4-------4-----/-8---------------|

G|----------------------------------------------------------------|
D|----------------------------------------------------------------|
A|-----------------------8--------------------------------8-------|
E|6-------6-----/-10--------------6-------6-----/-10--------------|

G|----------------------------------------------------------------|
D|----------------------------------------------------------------|
A|------------------------5-------5-h-6---5-------5-h-6---5-------|
E|3-------3-----/-7-----------------------------------------------|

G|----------------------------------------------------------------|
D|----------------------------------------------------------------|
A|------------------------6-------------------------------6-------|
E|4-------4-----/-8---------------4-------4-----/-8---------------|

G|----------------------------------------------------------------|
D|------------------------5-------------------------------5-------|
A|3-------3-----/-6---------------3-------3-----/-6---------------|
E|----------------------------------------------------------------|

G|----------------------------------------------------------------|
D|----------------------------------------------------------------|
A|------------------------5-------------------------------5-------|
E|3-------3-----/-7---------------3-------3-----/-7---------------|

G|----------------------------------------------------------------|
D|5-----------------------5---5---5---5---5-------5---5---5-------|
A|----------------------------------------------------------------|
E|----------------------------------------------------------------|

4:08

G|----------------------------------------------------------------|
D|------------------------5-------------------------------5-------|
A|3-------3-----/-6---------------3-------3-----/-6---------------|
E|----------------------------------------------------------------|

G|----------------------------------------------------------------|
D|----------------------------------------------------------------|
A|------------------------6-------------------------------6-------|
E|4-------4-----/-8---------------4-------4-----/-8---------------|

G|----------------------------------------------------------------|
D|----------------------------------------------------------------|
A|-----------------------8--------------------------------8-------|
E|6-------6-----/-10--------------6-------6-----/-10--------------|

G|----------------------------------------------------------------|
D|----------------------------------------------------------------|
A|------------------------5-------5-h-6---5-------5-h-6---5-------|
E|3-------3-----/-7-----------------------------------------------|

G|----------------------------------------------------------------|
D|----------------------------------------------------------------|
A|------------------------6-------------------------------6-------|
E|4-------4-----/-8---------------4-------4-----/-8---------------|

G|----------------------------------------------------------------|
D|------------------------5-------------------------------5-------|
A|3-------3-----/-6---------------3-------3-----/-6---------------|
E|----------------------------------------------------------------|

G|----------------------------------------------------------------|
D|----------------------------------------------------------------|
A|------------------------5-------------------------------5-------|
E|3-------3-----/-7---------------3-------3-----/-7---------------|

G|----------------------------------------------------------------|
D|5-------5---5---5-------5---5---5---------------5---------------|
A|----------------------------------------------------------------|
E|----------------------------------------------------------------|

4:30

G|----------------------------------------------------------------|
D|------------------------5-------------------------------5-------|
A|3-------3-----/-6---------------3-------3-----/-6---------------|
E|----------------------------------------------------------------|

G|----------------------------------------------------------------|
D|----------------------------------------------------------------|
A|------------------------6-------------------------------6-------|
E|4-------4-----/-8---------------4-------4-----/-8---------------|

G|----------------------------------------------------------------|
D|----------------------------------------------------------------|
A|-----------------------8--------------------------------8-------|
E|6-------6-----/-10--------------6-------6-----/-10--------------|

G|----------------------------------------------------------------|
D|----------------------------------------------------------------|
A|------------------------5-------5-h-6---5-------5-h-6---5-------|
E|3-------3-----/-7-----------------------------------------------|

G|----------------------------------------------------------------|
D|----------------------------------------------------------------|
A|------------------------6-------------------------------6-------|
E|4-------4-----/-8---------------4-------4-----/-8---------------|

G|----------------------------------------------------------------|
D|------------------------5-------------------------------5-------|
A|3-------3-----/-6---------------3-------3-----/-6---------------|
E|----------------------------------------------------------------|

G|----------------------------------------------------------------|
D|----------------------------------------------------------------|
A|------------------------5-------------------------------5-------|
E|3-------3-----/-7---------------3-------3-----/-7---------------|

G|----------------------------------------------------------------|
D|5-------5-------5-------5-------5-------5-------5-------5-------|
A|----------------------------------------------------------------|
E|----------------------------------------------------------------|

4:54

G|----------------------------------------------------------------|
D|------------------------5-------------------------------5-------|
A|3-------3-----/-6---------------3-------3-----/-6---------------|
E|----------------------------------------------------------------|

G|----------------------------------------------------------------|
D|----------------------------------------------------------------|
A|------------------------6-------------------------------6-------|
E|4-------4-----/-8---------------4-------4-----/-8---------------|

G|----------------------------------------------------------------|
D|----------------------------------------------------------------|
A|-----------------------8--------------------------------8-------|
E|6-------6-----/-10--------------6-------6-----/-10--------------|

G|----------------------------------------------------------------|
D|----------------------------------------------------------------|
A|------------------------5-------5-h-6---5-------5-h-6---5-------|
E|3-------3-----/-7-----------------------------------------------|

G|----------------------------------------------------------------|
D|----------------------------------------------------------------|
A|------------------------6-------------------------------6-------|
E|4-------4-----/-8---------------4-------4-----/-8---------------|

G|----------------------------------------------------------------|
D|------------------------5-------------------------------5-------|
A|3-------3-----/-6---------------3-------3-----/-6---------------|
E|----------------------------------------------------------------|

G|----------------------------------------------------------------|
D|----------------------------------------------------------------|
A|------------------------5-------------------------------5-------|
E|3-------3-----/-7---------------3-------3-----/-7---------------|

G|----------------------------------------------------------------|
D|5-------5-----/-5-------5---5-/-5-------5---5-/-5---------------| fades out here.
A|----------------------------------------------------------------|
E|----------------------------------------------------------------|
Добавлено: 26.08.2015
Другие материалы по этой песне:
  • Аккорды и текст

Страница создана 26.08.2015
http://primanota.ru/purson/tragic-catastrophe-chords.htm
Привет, Гость.
Предлагаем пройти революционный курс по гитаре.
Подарок от PrimaNota.Ru, забирай!