PrimaNota.ru - самый крупный в мире бесплатный архив песенных текстов, аккордов, табулатур и нот


Purson - Spiderwood Farm - бас-таба, видео

Регистрация Запомнить меня
Войти через:  Facebook Google Twitter Vk Yandex Mail.ru

Purson - Spiderwood Farm - бас-таба, видео

Печатать
Просмотров: 92
Tabbed by: 6METAL6BASSIST6
E-mail: petergriffinav@gmail.com

Tuning: EADG

0:16

G|------------------------------------------------------------------------------------------------|
D|----------------------------------------------------------------------/-12--12--12--12--12------| x8
A|5-----------5-------3---5-----------5-------3---5-----------5-----------------------------------|
E|------------------------------------------------------------------------------------------------|

0:52

G|----------------------------------------------------------------|.
D|----------------------------------------------------------------|.
A|----------------0---1---3-------6---5---3-------5-------3---5---|.
E|3---------------------------------------------------------------|.
                                                                   . x4
G|----------------------------------------------------------------|.
D|5---------------------------------------------------------------|.
A|----------------5-----------5---6---5---3-----------------------|.
E|------------------------------------------------4---------------|.

1:15

G|--------------------------------------------------------7-------|
D|8---8---7---5---3-------5-----------------------4---7-----------| x3
A|--------------------------------5-----------5-------------------|
E|----------------------------------------------------------------|

G|----------------------------------------------------------------|
D|8---8---7---5---3-------5---------------------------------------|
A|--------------------------------5-------------------------------|
E|----------------------------------------------------------------|

1:27

G|----------------------------------------------------------------|
D|----------------------------------------------------------------|
A|10------------------------------9-------------------------------|
E|----------------------------------------------------------------|

G|----------------------------------------------------------------|
D|10--------------------------------------------------------------|
A|--------------------------------10------------------------------|
E|----------------------------------------------------------------|

G|----------------12----------------------------------------------|
D|10----------------------10----------------------12--------------|
A|--------------------------------10----------------------10------|
E|----------------------------------------------------------------|

G|----------------------------------------------------------------|
D|----------------------------------------------------------------|
A|9-------------------------------10--\---------------------------|
E|------------------------------------------------4---------------|

1:39

G|----------------------------------------------------------------|.
D|----------------------------------------------------------------|.
A|----------------0---1---3-------6---5---3-------5-------3---5---|.
E|3---------------------------------------------------------------|.
                                                                   . x2
G|----------------------------------------------------------------|.
D|5---------------------------------------------------------------|.
A|----------------5-----------5---6---5---3-----------------------|.
E|------------------------------------------------4---------------|.

1:50

G|----------------------------------------------------------------|
D|----------------------------------------------------------------|
A|10------------------------------9-------------------------------|
E|----------------------------------------------------------------|

G|----------------------------------------------------------------|
D|10----------------------10--------------------------------------|
A|--------------------------------10------------------------------|
E|----------------------------------------------------------------|

G|----------------12----------------------------------------------|
D|10----------------------10----------------------12--------------|
A|--------------------------------10----------------------10------|
E|----------------------------------------------------------------|

G|----------------------------------------------------------------|
D|----------------------------------------------------------------|
A|9---------------------------------------------------------------|
E|--------------------------------3---------------4---------------|

2:01

G|----------------------------------------------------------------|.
D|----------------------------------------------------------------|.
A|----------------0---1---3-------6---5---3-------5-------3---5---|.
E|3---------------------------------------------------------------|.
                                                                   . x2
G|----------------------------------------------------------------|.
D|5---------------------------------------------------------------|.
A|----------------5-----------5---6---5---3-----------------------|.
E|------------------------------------------------4---------------|.

2:12

G|--------------------------------------------------------7-------|
D|8---8---7---5---3-------5-----------------------4---7-----------| x3
A|--------------------------------5-----------5-------------------|
E|----------------------------------------------------------------|

G|----------------------------------------------------------------|
D|8---8---7---5---3-------5---------------------------------------|
A|--------------------------------5-------------------------------|
E|----------------------------------------------------------------|

2:24

G|----------------------------------------------------------------|
D|----------------5-------------------------------8---8---5-------|
A|------------5---------------------------------------------------|
E|3-------------------------------3-------------------------------|

G|----------------------------------------------------------------|
D|----------------5-------------------------------8---8---5-------|
A|----------------------------5-----------------------------------|
E|3-------------------------------3-------------------------------|

G|----------------------------------------------------------------|
D|----------------5-------------------------------8---8---5-------|
A|----------------------------------------------------------------|
E|3-------------------------------3-------------------------------|

G|----------------------------------------------------------------|
D|----------------5---------------5---5---5---5---5---3-----------|
A|----------------------------5---------------------------5-------|
E|3---------------------------------------------------------------|

2:56

G|----------------5-----------------------------------------------|
D|------------5---------------5-------------------8---8---5-------| x3
A|3-------------------------------3-------------------------------|
E|----------------------------------------------------------------|

G|----------------5---------------4---4---4---4---4---------------|
D|------------5---------------5-----------------------5---3-------|
A|3---------------------------------------------------------------|
E|----------------------------------------------------------------|

Repeat from 2:24



3:08

G|----------------------------------------------------------------|.
D|----------------------------------------------------------------|.
A|----------------0---1---3-------6---5---3-------5-------3---5---|.
E|3---------------------------------------------------------------|.
                                                                   . x6
G|----------------------------------------------------------------|.
D|5---------------------------------------------------------------|.
A|----------------5-----------5---6---5---3-----------------------|.
E|------------------------------------------------4---------------|.

3:41

G|--------------------------------------------------------7-------|
D|8---8---7---5---3-------5-----------------------4---7-----------| x3
A|--------------------------------5-----------5-------------------|
E|----------------------------------------------------------------|

G|----------------------------------------------------------------|
D|8---8---7---5---3-------5---------------------------------------|
A|--------------------------------5-------------------------------|
E|----------------------------------------------------------------|

5:53

G|------------------------------------------------------------------------------------------------|
D|----------------------------------------------------------------------/-12--12--12--12--12------| x12
A|5-----------5-------3---5-----------5-------3---5-----------5-----------------------------------|
E|------------------------------------------------------------------------------------------------|

G|----------------------------------------------------------------------------------------------------|
D|----------------------------------------------------------------------------------------------------|
A|5-----------------------------------------------------------------------------------------------5---|
E|----------------------------------------------------------------------------------------------------|
Добавлено: 26.08.2015
Другие материалы по этой песне:
  • Аккорды и текст

Страница создана 26.08.2015
http://primanota.ru/purson/spiderwood-farm-chords.htm
Привет, Гость.
Предлагаем пройти революционный курс по гитаре.
Подарок от PrimaNota.Ru, забирай!