PrimaNota.ru - самый крупный в мире бесплатный архив песенных текстов, аккордов, табулатур и нот


Purson - Sapphire Ward - бас-таба, видео

Регистрация Запомнить меня
Войти через:  Facebook Google Twitter Vk Yandex Mail.ru

Purson - Sapphire Ward - бас-таба, видео

Печатать
Просмотров: 99
Tabbed by: 6METAL6BASSIST6
E-mail: petergriffinav@gmail.com

Tuning: EADG

0:08

G|----------------|
D|----------------|
A|7-------0-------|
E|----------------|

G|----------------------------------------------------------------|
D|----------------------------------------------------------------|
A|2---2-2-2---2-2-2---2-2-2---2-2-2---2-2-2---2-2-2---2-2-2---2-2-|
E|----------------------------------------------------------------|

G|----------------------------------------------------------------|
D|--------------------------------7h9-9-9-9-----------------------|
A|2---2-2-2---2-2-2---2---7h9-9-----------------5-7-------0-------|
E|----------------------------------------------------------------|

G|----------------------------------------------------------------|
D|----------------------------------------------------------------|
A|2---2-2-2---2-2-2---2-2-2---2---2---2-2-2---2-2-2---2-2-2---2-2-|
E|----------------------------------------------------------------|

G|----------------------------------------------------------------|
D|--------------------------------7h9-9-9-9-----------------------|
A|2---2-2-2---2-2-2---2---7h9-9-----------------5-7-------0-------|
E|----------------------------------------------------------------|

G|--------------------4---6-4-------------------------------------|
D|----------------4-6---------6-----------------------------------| x2
A|4---4-4-7---4-7-----------------4---4-4-7---4-4-4-------3-------|
E|----------------------------------------------------------------|

0:33

G|----------------------------------------------------------------|
D|----------------------------------------------------------------| x8
A|4---4-4-7---4-4-4---4-4-7---4-4-4---4-4-7---4-4-4-------3-------|
E|----------------------------------------------------------------|

1:06

G|----------------------------------------------------------------|
D|----------------------------------------------------------------| x2
A|0-----------3---------------5---7---7-/-7---7-/-7---7-/-7---7---|
E|----------------3-----------------------------------------------|

G|------------5---------------------------------------------------|
D|7-----7-7-------5-----5-5---7-----------------------------------|
A|--------------------------------7---7-/-7---7-/-7---7-/-7---7---|
E|----------------------------------------------------------------|

G|----------------------------------------------------------------|
D|----------------------------------------------------------------|
A|0-----------3---------------5---7---------------------------5---|
E|----------------3-----------------------------------------------|

G|--------------------------------|
D|--------------------------------|
A|7-------------------------------|
E|--------------------------------|

1:25

G|----------------------------------------------------------------|
D|--------------------------------6-----------6---6-------9-------|
A|4-----------4---4-----------6-----------------------------------|
E|----------------------------------------------------------------|

G|----------------------------------------------------------------|
D|5-----------5-/-7-------5---------------------------------------|
A|--------------------------------2-----------2---2---------------|
E|----------------------------------------------------------------|

G|----------------------------------------------------------------|
D|--------------------------------6-----------6---6-------9-------|
A|4-----------4---4-----------6-----------------------------------|
E|----------------------------------------------------------------|

G|--------------------------------|
D|5-------------------------------|
A|--------------------------------|
E|--------------------------------|

1:40

G|----------------------------------------------------------------|.
D|----------------------------------------------------------------|.
A|2---2-2-2---2-2-2---2-2-2---2-2-2---2-2-2---2-2-2---2-2-2---2-2-|.
E|----------------------------------------------------------------|.
                                                                   . x2
G|----------------------------------------------------------------|.
D|--------------------------------7h9-9-9-9-----------------------|.
A|2---2-2-2---2-2-2-------7h9-9-----------------5-7-------0-------|.
E|----------------------------------------------------------------|.

G|--------------------4---6-4-------------------------------------|
D|----------------4-6---------6-----------------------------------| x2
A|4---4-4-7---4-7-----------------4---4-4-7---4-4-4-------3-------|
E|----------------------------------------------------------------|

2:04

G|----------------------------------------------------------------|
D|----------------------------------------------------------------| x4
A|4---4-4-7---4-4-4---4-4-7---4-4-4---4-4-7---4-4-4-------3-------|
E|----------------------------------------------------------------|

2:22

G|----------------------------------------------------------------|
D|----------------------------------------------------------------| x2
A|0-----------3---------------5---7---7-/-7---7-/-7---7-/-7---7---|
E|----------------3-----------------------------------------------|

G|------------5---------------------------------------------------|
D|7-----7-7-------5-----5-5---7-----------------------------------|
A|--------------------------------7---7-/-7---7-/-7---7-/-7---7---|
E|----------------------------------------------------------------|

G|----------------------------------------------------------------|
D|----------------------------------------------------------------|
A|0-----------3---------------5---7---------------------------5---|
E|----------------3-----------------------------------------------|

G|--------------------------------|
D|--------------------------------|
A|7-------------------------------|
E|--------------------------------|

2:40

G|----------------------------------------------------------------|
D|--------------------------------6-----------6---6-------9-------|
A|4-----------4---4-----------6-----------------------------------|
E|----------------------------------------------------------------|

G|----------------------------------------------------------------|
D|5-----------5-/-7-------5---------------------------------------|
A|--------------------------------2-----------2---2---------------|
E|----------------------------------------------------------------|

|-----------------------------------------------------------------|
D|--------------------------------6-----------6---6-------9-------|
A|4-----------4---4-----------6-----------------------------------|
E|----------------------------------------------------------------|

G|--------------------------------|
D|5-------------------------------|
A|--------------------------------|
E|--------------------------------|

2:56

G|----------------------------------------------------------------|.
D|----------------------------------------------------------------|.
A|2---2-2-2---2-2-2---2-2-2---2-2-2---2-2-2---2-2-2---2-2-2---2-2-|.
E|----------------------------------------------------------------|.
                                                                   . x2
G|----------------------------------------------------------------|.
D|--------------------------------7h9-9-9-9-----------------------|.
A|2---2-2-2---2-2-2---2---7h9-9-----------------5-7-------0-------|.
E|----------------------------------------------------------------|.

G|----------------------------------------------------------------|
D|----------------------------------------------------------------|
A|2---2-2-2---2-2-2---2-2-2---2-2-2---2-2-2---2-2-2---2-2-2---2-2-|
E|----------------------------------------------------------------|

G|----------------------------------------------------------------|
D|--------------------------------7h9-9-9-9-----------------------|
A|2---2-2-2---2-2-2-------7h9-9-----------------5-7-------0-------|
E|----------------------------------------------------------------|

G|----------------------------------------------------------------|
D|----------------------------------------------------------------|
A|2---2-2-2---2-2-2---2-2-2---2-2-2---2-2-2---2-2-2---2-2-2---2-2-|
E|----------------------------------------------------------------|

G|----------------------------------------------------------------|
D|--------------------------------7h9-9-9-9-----------------------|
A|2---2-2-2---2-2-2---2---7h9-9-----------------5-7-------0-------|
E|----------------------------------------------------------------|

3:28

G|----------------------------------------------------------------|
D|----------------------------------------------------------------| x2
A|0-----------3---------------5---7---7-/-7---7-/-7---7-/-7---7---|
E|----------------3-----------------------------------------------|

G|------------5---------------------------------------------------|
D|7---------------5-----------7-----------------------------------|
A|--------------------------------7---7-/-7---7-/-7---7-/-7---7---|
E|----------------------------------------------------------------|

G|----------------------------------------------------------------|
D|----------------------------------------------------------------|
A|0-----0-0---3---------------5---7---------------------------5---|
E|----------------3-----3-3---------------------------------------|

G|--------------------------------|
D|--------------------------------|
A|7-------------------------------|
E|--------------------------------|

3:48

G|----------------------------------------------------------------|
D|--------------------------------6-----------6---6-------9-------|
A|4-----------4---4-----------6-----------------------------------|
E|----------------------------------------------------------------|

G|----------------------------------------------------------------|
D|5-----------5-/-7-------5---------------------------------------|
A|--------------------------------2-----------2---2---------------|
E|----------------------------------------------------------------|

|-----------------------------------------------------------------|
D|--------------------------------6-----------6---6-------9-------|
A|4-----------4---4-----------6-----------------------------------|
E|----------------------------------------------------------------|

G|--------------------------------|
D|5-------------------------------|
A|--------------------------------|
E|--------------------------------|

4:03

G|----------------------------------------------------------------|.
D|----------------------------------------------------------------|.
A|2---2-2-2---2-2-2---2-2-2---2-2-2---2-2-2---2-2-2---2-2-2---2-2-|.
E|----------------------------------------------------------------|.
                                                                   . x2
G|----------------------------------------------------------------|.
D|--------------------------------7h9-9-9-9-----------------------|.
A|2---2-2-2---2-2-2---2---7h9-9-----------------5-7-------0-------|.
E|----------------------------------------------------------------|.

4:20

G|----------------------------------------------------------------|.
D|--------------7-9---9---9-7-------------------7-9---9---9-7-----|.
A|2-------2-------------------9---2-------2-------------------9---|.
E|----------------------------------------------------------------|.
                                                                   . x2
G|----------------------------------------------------------------|.
D|--------------7-9---9---9-7-------------------------------------|.
A|2-------2-------------------9---2-------2-------7-------0-------|.
E|----------------------------------------------------------------|.
Добавлено: 26.08.2015
Другие материалы по этой песне:
  • Аккорды и текст

Страница создана 26.08.2015
http://primanota.ru/purson/sapphire-ward-chords.htm
Привет, Гость.
Предлагаем пройти революционный курс по гитаре.
Подарок от PrimaNota.Ru, забирай!