PrimaNota.ru - самый крупный в мире бесплатный архив песенных текстов, аккордов, табулатур и нот


Purson - Sailors Wifes Lament - бас-таба, видео

Регистрация Запомнить меня
Войти через:  Facebook Google Twitter Vk Yandex Mail.ru

Purson - Sailors Wifes Lament - бас-таба, видео

Печатать
Просмотров: 19
Tabbed by: 6METAL6BASSIST6
E-mail: petergriffinav@gmail.com

Tuning: EADG

G|------|
D|------|
A|------|
E|5-/---|

0:40

G|------------------------------------------------------------------------|
D|7-----------------------------------------------------------------------|
A|----------------7-----------------7-------------------------------------|
E|------------------5-----------------5-----------------------------5-/---|

G|------------------------------------------------------------------------|
D|7-----------------------------------------------------------------------|
A|----------------7-----------------7-------------------------------------|
E|------------------5-----------------5---------------------------0-5-----|

G|------------------------------------------------------------------------|
D|------------------------------5---------------------------------6-9---6-|
A|----------2-5-----3---------------------------2-5-----7-----------------|
E|3-----------------------------------3-----------------------------------|

G|------------------------------------------------------------------------|
D|7-----------------7-----------------------------------------------------|
A|----------------7-----------------7-------------------------------------|
E|------------------------------------5---------------0-5-----5---------0-|

1:03

G|------------------------------------------------------------------------|
D|------------------7-----------7-----------------------7-----7-----------|
A|------------4---7-----------7-------------------4---7-----7-------7-----|
E|5---------------------------------5-5-----------------------------------|

G|------------------------------------------------------------------------|
D|----------------7-----------------------------------7-------------------|
A|5---------/-9-----9---7-5---------2-5---------/-9-----9---7-5---2-5---5-|
E|------------------------------------------------------------------------|

G|------------------------------------------------------------------------|
D|5-----------------------------------------------------------------------|
A|----------7-5-----------------------------2---5-------7-----5---5-7---5-|
E|------------------3---------------0-3-----------------------------------|

G|------------------------------------------------------------------------|
D|------------------------5---------------------------/-6-----9-----6-----|
A|3---------------3/7-----------7---5-7---------7-7-----------------------|
E|------------------------------------------------------------------------|

1:28

G|------------------------------------------------------------------------|
D|7-----------------7-----------------------------------------------------|
A|----------------7-----------------7-----------------------------2-3---5-|
E|------------------------------------5---------------0-5---0-5-----------|

G|------------------------------------------------------------------------|
D|7-----------------------------------------------------------------------|
A|----------------7-----------------7-------------------------------------|
E|------------------5-----------------5---------------0-5---0-5---0-5---0-|

G|------------------------------------------------------------------------|
D|------------------------------5---------------------------------6-9---6-|
A|----------2-5---2-3---------7-----------------2-5-----7-----------------|
E|3---------------------------------3-3-----------------------------------|

G|------------------------------------------------------------------------|
D|7-----------------7-----------------------------------------------------|
A|----------------7-----------------7-----------------------------2-3---5-|
E|------------------------------------5---------------0-5---0-5-----------|

1:51

G|------------------------------------------------------------------------|
D|7-----------------------------------------------------------------------|
A|----------------7-----------------7-----------------------------2-3---5-|
E|------------------5-----------------5---------------0-5---0-5-----------|

G|------------------------------------------------------------------------|
D|7-----------------------------------------------------------------------|
A|----------------7-----------------7-------------------------------------|
E|------------------5-----------------5---------------0-5---0-5---0-5---0-|

G|------------------------------------------------------------------------|
D|------------------------------5---------------------------------6-9---6-|
A|----------2-5---2-3---------------------------2-5-----7-----------------|
E|3-----------------------------------3-----------------------------------|

G|------------------------------------------------------------------------|
D|7-----------------7-----------------------------------------------------|
A|----------------7-----------------7-------------------------------------|
E|------------------------------------5---------------0-5---0-5-----5-----|

2:15

G|------------------------------------------------------------------------|
D|------------------7-----------7-----------------------7-----7-----------|
A|------------4---7-----------7-------------------4---7-----7-------7-----|
E|5-----------------------------------5---------5-------------------------|

G|------------------------------------------------------------------------|
D|----------------7-----------------------------------7-------------------|
A|5---------/-9-----9---7-5---------2-5---------/-9-----9---7-5---2-5---5-|
E|------------------------------------------------------------------------|

G|------------------------------------------------------------------------|
D|5-----------------------------------------------------------------------|
A|----------7-5-----------------------------2---5-------7-----5---5-7---5-|
E|------------------3---------------0-3-----------------------------------|

G|------------------------------------------------------------------------|
D|------------------------5----------------------------/6-----9-----6-----|
A|3---------------3/7-----------7---5-7-----------7---7-------------------|
E|------------------------------------------------------------------------|

2:39

G|------------------------------------------------------------------------|
D|7-----------------7-----------------------------------------------------|
A|----------------7-----------------7-----------------------------2-3---5-|
E|------------------------------------5---------------0-5---0-5-----------|

G|------------------------------------------------------------------------|
D|7-----------------------------------------------------------------------|
A|----------------7-----------------7-----------------------------2-3---5-|
E|------------------5-----------------5---------------0-5---0-5-----------|

G|------------------------------------------------------------------------|
D|7-----------------7-----------------------------------------------------| x8
A|----------------7-----------------7-----------------------------2-3---5-|
E|------------------------------------5---------------0-5---0-5-----------|

G|------------------------------------------------------------------------|
D|7-----------------7-----------------------------------------------------|
A|----------------------------------7-------------------------------------|
E|------------------------------------5-----------------------------------|
Добавлено: 18.05.2016
Другие материалы по этой песне:
  • Аккорды и текст

Страница создана 18.05.2016
http://primanota.ru/purson/sailors-wifes-lament-chords.htm
Привет, Гость.
Предлагаем пройти революционный курс по гитаре.
Подарок от PrimaNota.Ru, забирай!