PrimaNota.ru - самый крупный в мире бесплатный архив песенных текстов, аккордов, табулатур и нот


Purson - Rocking Horse - таба, бас-таба, видео

Регистрация Запомнить меня
Войти через:  Facebook Google Twitter Vk Yandex Mail.ru

Purson - Rocking Horse - таба, бас-таба, видео

Печатать
Просмотров: 111
Rocking Horse

Standard Tuning

Intro/verse

--------------------------------------------------|
-----7-----7-----7-7---------3-----3--------------|
---7-----7-----7---7-------4-----3----------------|
-9-----8-----9-----9-----3-----4--------0---0-----|
------------------------------------------2---2---|
--------------------------------------------------|

Bridge

 -----------------------------------------|
 -----------------------------------------|
 ----------------------------------------0|
 -----------------------------2------0----|
 ----4---4-5---5-2-5-2-----4-------2-----0|
 -2----2----------------5-------3------2--|

 Chorus - Repeat pattern as necessary
 -9-----9-----9-------------------------------------|
 ---8-----8-----8-----------------------------------|
 -----7-----7-----7---------------------------------|
 ---------------------------------------------------|
 ---------------------------------------------------|
 ---------------------------------------------------|

 Interlude

 -----------------------------------------------------------------------|
 -----------------------------------------------------------------------|
 -----------------------------------------------------------------------|
 --4v--------------4v---------------------------------------------------|
 ---------2v---------------2---2-----3-----4---------7---5--------------|
 ----------------------------------------------------------5---7-8---7--|

https://www.facebook.com/pursontheband
Добавлено: 06.04.2014
Другие материалы по этой песне:
  • Аккорды и текст

Страница создана 06.04.2014
http://primanota.ru/purson/rocking-horse-chords.htm
Привет, Гость.
Предлагаем пройти революционный курс по гитаре.
Подарок от PrimaNota.Ru, забирай!