PrimaNota.ru - самый крупный в мире бесплатный архив песенных текстов, аккордов, табулатур и нот


Purson - Mavericks And Mystics - бас-таба, видео

Регистрация Запомнить меня
Войти через:  Facebook Google Twitter Vk Yandex Mail.ru

Purson - Mavericks And Mystics - бас-таба, видео

Печатать
Просмотров: 42
Уроки эстрадного вокала в Санкт-Петербурге
Tabbed by: 6METAL6BASSIST6
E-mail: petergriffinav@gmail.com

Tuning: EADG

G|------------------------------------------------------------------------------------------------|
D|7---5-----5-7-----7-5-----10--10----------------7---5-----5-7-----7-5-----10--10----------------| x2
A|------7---------------7---------------10--10----------7---------------7---------------10--10----|
E|------------------------------------------------------------------------------------------------|

0:15

G|------------------------------------------------------------------------------------------------|
D|------------------------------------------------------------------------------------------------| x2
A|------------------------3-----------------------3-----------------------------------------------|
E|5-----5-----5-----5-----------5-----5-----5-----------5-----5-----5-----3---5-------3---0-------|

G|------------------10----9---9-7-----------------------------------------------------------------|
D|----------------10----10------------10----9-----------------------------------------------------|
A|8-----------------------------------------------------------------------------------7---6---5---|
E|------------------------------------------------5-----5-----5-----5-----3-----3-----------------|

G|------------------10----9---9-7-----------------------------------------------------------------|
D|----------------10----10------------10----9---------------------------------------5-------------|
A|8-----------------------------------------------------3-----------5-----------5-7---7-5-3-------|
E|------------------------------------------------5-3-5-------5-3-5-------5-3-5-------------5-----|

0:44

G|------------------------------------------------------------------------------------------------|
D|------------------------------------------------------------------------------------------------| x2
A|------------------------3-----------------------3-----------------------------------------------|
E|5-----5-----5-----5-----------5-----5-----5-----------5-----5-----5-----3---5-------3---0-------|

G|------------------10----9---9-7-----------------------------------------------------------------|
D|----------------10----10------------10----9-----------------------------------------------------|
A|8-----------------------------------------------------------------------------------7---6---5---|
E|------------------------------------------------5-----5-----5-----5-----3-----3-----------------|

G|------------------10----9---9-7-----------------------------------------------------------------|
D|----------------10----10------------10----9---------------------------------------5-------------|
A|8-----------------------------------------------------3-----------5-----------5-7---7---6---5---|
E|------------------------------------------------5-3-5-------5-3-5-------5-3-5-------------------|

G|------------------10----9---9-7-----------------------------------------------------------------|
D|----------------10----10------------10----9-----------------------------------------------------|
A|8---------------------------------------------------------------------------6-------6-----------|
E|------------------------------------------------5-----5-----5-----------8---------8-------8-----|

G|---------------------------------------------------------------------------|
D|---------------------------------------------------------------------------|
A|----5-------5-----------------------8---8---8------------------------------|
E|7---------7-------7-----6---6---6---------------6--------------------------|

1:26

G|------------------------------------------------------------------------------------------------|
D|7---5-----5-7-----7-5-----10--10----------------7---5-----5-7-----7-5-----10--10----------------| x2
A|------7---------------7---------------10--10----------7---------------7---------------10--10----|
E|------------------------------------------------------------------------------------------------|

1:41

G|------------------------------------------------------------------------------------------------|
D|------------------------------------------------------------------------------------------------| x2
A|------------------------3-----------------------3-----------------------------------------------|
E|5-----5-----5-----5-----------5-----5-----5-----------5-----5-----5-----3---5-------3---0-------|

G|------------------10----9---9-7-----------------------------------------------------------------|
D|----------------10----10------------10----9-----------------------------------------------------|
A|8-----------------------------------------------------------------------------------7---6---5---|
E|------------------------------------------------5-----5-----5-----5-----3-----3-----------------|

G|------------------10----9---9-7-----------------------------------------------------------------|
D|----------------10----10------------10----9---------------------------------------5-------------|
A|8-----------------------------------------------------3-----------5-----------5-7---7---6---5---|
E|------------------------------------------------5-3-5-------5-3-5-------5-3-5-------------------|

G|------------------10----9---9-7-----------------------------------------------------------------|
D|----------------10----10------------10----9-----------------------------------------------------|
A|8---------------------------------------------------------------------------6-------6-----------|
E|------------------------------------------------5-----5-----5-----------8---------8-------8-----|

G|---------------------------------------------------------------------------|
D|---------------------------------------------------------------------------|
A|----5-------5-----------------------8---8---8------------------------------|
E|7---------7-------7-----6---6---6---------------6--------------------------|

2:23

G|------------------------------------------------------------------------------------------------|
D|7---5-----5-7-----7-5-----10--10----------------7---5-----5-7-----7-5-----10--10----------------| x2
A|------7---------------7---------------10--10----------7---------------7---------------10--10----|
E|------------------------------------------------------------------------------------------------|

G|------------------------------------------------------------------------------------------------|
D|----------------------------------5-----------------------------------------------5-------------|
A|------3-----------5-----------5-7---7-5-3-------------3-----------5-----------5-7---7-5-3-------|
E|5-3-5-------5-3-5-------5-3-5-------------5-----5-3-5-------5-3-5-------5-3-5-------------5-----|

G|------------------------------------------------------------------------------------------------|
D|----------------------------------7-----------------------------------------------5-------------|
A|------5-----------7-----------7-9---9-7-5-------------3-----------5-----------5-7---7---6---5---|
E|7-5-7-------7-5-7-------7-5-7-------------7-----5-3-5-------5-3-5-------5-3-5-------------------|

2:53

G|------------------10----9---9-7-----------------------------------------------------------------|
D|----------------10------------------10----9-----------------------------------------------------|
A|8-----------------------------------------------------------------------------------7---6---5---|
E|------------------------------------------------5-----5-----5-----5-----3-----3-----------------|

G|------------------10----9---9-7-----------------------------------------------------------------|
D|----------------10----10------------10----9---------------------------------------5-------------|
A|8-----------------------------------------------------3-----------5-----------5-7---7---6---5---|
E|------------------------------------------------5-3-5-------5-3-5-------5-3-5-------------------|

G|------------------10----9---9-7-----------------------------------------------------------------|
D|----------------10----10------------10----9---------------------------------------5-------------|
A|8-----------------------------------------------------3-----------5-----------5-7---7---6---5---|
E|------------------------------------------------5-3-5-------5-3-5-------5-3-5-------------------|

G|------------------10----9---9-7-----------------------------------------------------------------|
D|----------------10----10------------10----9-----------------------------------------------------|
A|8---------------------------------------------------------------------------6-------6-----------|
E|------------------------------------------------5-----5-----5-----------8---------8-------8-----|

G|------------------------------------------------------------------------------------------------|
D|------------------------------------------------------------------------------------------------|
A|----5-------5-----------------------8---8---8---------------------------------------------------|
E|7---------7-------7-----6---6---6---------------6-----------------------------------------------|
Добавлено: 18.05.2016
Вам также может быть интересно:
Другие материалы по этой песне:
  • Аккорды и текст

Страница создана 18.05.2016
http://primanota.ru/purson/mavericks-and-mystics-chords.htm
Привет, Гость.
Предлагаем пройти революционный курс по гитаре.
Подарок от PrimaNota.Ru, забирай!