PrimaNota.ru - самый крупный в мире бесплатный архив песенных текстов, аккордов, табулатур и нот


Purson - Leaning On A Bear - бас-таба, видео

Регистрация Запомнить меня
Войти через:  Facebook Google Twitter Vk Yandex Mail.ru

Purson - Leaning On A Bear - бас-таба, видео

Печатать
Просмотров: 90
Tabbed by: 6METAL6BASSIST6
E-mail: petergriffinav@gmail.com

Tuning: EADG

G|------|
D|------|
A|7-\---|
E|------|

G|------------------------------------------------------------------------------------------------------|
D|------------------------------------------------------------------------------------------------------|
A|2---2-2-0-1-2---2-2-5-5-2---2-2-0-1-2---2-2-5-5-2---2-2-0-1-2---2-2-5-5-2---2-2-0-1-2---2-2-5-5-2---2-|
E|------------------------------------------------------------------------------------------------------|

G|------------------------------------------------------------------------------------------------------|
D|------5-----4-----2---------------2-----2-----2-------------4-4-4-4-4-4-4-2---------4-4-4-4-4-4-4-----|
A|2-----------------------5-----4-----4-----4-----4---------------------------4-------------------------|
E|------------------------------------------------------2-----------------------2-----------------------|

G|------------------------------------------------------------------------------------------------------|.
D|------------------------------------------------------------------------------------------------------|.
A|2---2-2-0-1-2---2-2-5-5-2---2-2-0-1-2---2-2-5-5-2---2-2-0-1-2---2-2-5-5-2---2-2-0-1-2---2-2-5-5-2---2-|.
E|------------------------------------------------------------------------------------------------------|.
                                                                                                         . x2
G|------------------------------------------------------------------------------------------------------|.
D|------5-----4-----2---------------2-----2-----2-------------4-4-4-4-4-4-4-2---------4-4-4-4-4-4-4-----|.
A|2-0---------------------5-----4-----4-----4-----4---------------------------4-------------------------|.
E|------------------------------------------------------2-----------------------2-----------------------|.

0:44

G|------------------------------------------------------------------------------------------------|
D|------------------------------------2-----------4---4-------------------------------------------| x2
A|2-----5-----------0-----------5-----------2-----------------------------------------------------|
E|------------2-----------3-------------------------------------------0---2---2-------------------|

G|------------------------------------------------------------------------------------------------|
D|------------------------------------------------------------------------------------------------|
A|------------------------------------------------0-----------0-----------0-----------0-----------|
E|3-----------3-----------3-----------3-----------------------------------------------------------|

G|------------------------------------------------------------------------------------------------|
D|------------------------------------------------------------------------------------------------|
A|2---2-2-0-1-2---2-2-5-5-2---2-2-0-1-2---2-2-5-5-2---2-2-0-1-2---2-2-5-5-2---2-2-0-1-2---2-2-5-5-|
E|------------------------------------------------------------------------------------------------|

1:12

G|------------------------------------------------------------------------------------------------------|.
D|------------------------------------------------------------------------------------------------------|.
A|2---2-2-0-1-2---2-2-5-5-2---2-2-0-1-2---2-2-5-5-2---2-2-0-1-2---2-2-5-5-2---2-2-0-1-2---2-2-5-5-2---2-|.
E|------------------------------------------------------------------------------------------------------|.
                                                                                                         . x2
G|------------------------------------------------------------------------------------------------------|.
D|------5-----4-----2---------------2-----2-----2-------------4-4-4-4-4-4-4-2---------4-4-4-4-4-4-4-----|.
A|2-0---------------------5-----4-----4-----4-----4---------------------------4-------------------------|.
E|------------------------------------------------------2-----------------------2-----------------------|.

1:40

G|------------------------------------------------------------------------------------------------|
D|------------------------------------2-----------4---4-------------------------------------------|
A|2-----5-----------0-----------5-----------2-----------------------------------------------------|
E|------------2-----------3-------------------------------------------0---2---2-------------------|

G|------------------------------------------------------------------------------------------------|
D|------------------------------------------------------------------------------------------------|
A|------------------------------------------------0-----0-----0-----0-----0-----0-----0-----0-----|
E|3-----3-----3-----3-----3-----3-----3-----3-----------------------------------------------------|

G|------------------------------------------------|
D|------------------------------------------------|
A|1-----1-----1-----1-----1-----1-----1-----1-----|
E|------------------------------------------------|

2:04

G|------------------------------------------------------------------------------------|
D|------5-\---2-----------------5-\---2-----------------5-----------------------------| x4
A|3-----------------2-----3-----------------2-----3-----------0---0---0---2---2---2---|
E|------------------------------------------------------------------------------------|

G|------------------------------------------------------------------------------------------------|
D|------------------------------------------------------------------------------------------------| x2
A|2---2-2-0-1-2---2-2-5-5-2---2-2-0-1-2---2-2-5-5-2---2-2-0-1-2---2-2-5-5-2---2-2-0-1-2---2-2-5-5-|
E|------------------------------------------------------------------------------------------------|

2:40

G|------------------------------------------------------------------------------------------------------|
D|------------------------------------------------------------------------------------------------------|
A|2---2-2-0-1-2---2-2-5-5-2---2-2-0-1-2---2-2-5-5-2---2-2-0-1-2---2-2-5-5-2---2-2-0-1-2---2-2-5-5-2---2-|
E|------------------------------------------------------------------------------------------------------|

G|------------------------------------------------------------------------------------------------------|
D|------5-----4-----2---------------2-----2-----2-------------4-4-4-4-4-4-4-2---------4-4-4-4-4-4-4-----|
A|2-----------------------5-----4-----4-----4-----4---------------------------4-------------------------|
E|------------------------------------------------------2-----------------------2-----------------------|

2:55

G|------------------------------------------------------------------------------------------------|
D|------------------------------------2-----------4---4-------------------------------------------| x2
A|2-----5-----------0-----------5-----------2-----------------------------------------------------|
E|------------2-----------3-------------------------------------------0---2---2-------------------|

G|------------------------------------------------------------------------------------------------|
D|------------------------------------------------------------------------------------------------|
A|------------------------------------------------0-----0-----0-----0-----0-----0-----0-----0-----|
E|3-----3-----3-----3-----3-----3-----3-----3-----------------------------------------------------|

G|------------------------------------------------------------------------------------------------|
D|------------------------------------------------------------------------------------------------|
A|1-----1-----1-----1-----1-----1-----1---1---1---1-----------------------------------------------|
E|------------------------------------------------------------------------------------------------|
Добавлено: 26.08.2015
Другие материалы по этой песне:
  • Аккорды и текст

Страница создана 26.08.2015
http://primanota.ru/purson/leaning-on-a-bear-chords.htm
Привет, Гость.
Предлагаем пройти революционный курс по гитаре.
Подарок от PrimaNota.Ru, забирай!