PrimaNota.ru - самый крупный в мире бесплатный архив песенных текстов, аккордов, табулатур и нот


Purson - The Contract - бас-таба, видео

Регистрация Запомнить меня
Войти через:  Facebook Google Twitter Vk Yandex Mail.ru

Purson - The Contract - бас-таба, видео

Печатать
Просмотров: 148
Уроки эстрадного вокала в Санкт-Петербурге
Tabbed by: 6METAL6BASSIST6
E-mail: petergriffinav@gmail.com

Tuning: EADG

G|----------------------------------------------------------------|
D|7---8---9-------9---------------7---8---9-------9---------------| x17
A|------------------------8---9---------------------------8---9---|
E|------------7-------7-----------------------7-------7-----------|

G|----------------------------------------------------------------|
D|7---8---9-------9---------------7---8---9-------9---------------|
A|------------------------8---9---------------------------8-------|
E|------------7-------7-----------------------7-------7-----------|

1:08

G|------------------------------------------------------------------------------------------------|
D|7---8---9---------------7---8---9---------------7---8---9---------------------------------------| x3
A|----------------8---9-------------------8---9-------------------8---9---10--9---7---5---7---9---|
E|------------7-----------------------7-----------------------7-----------------------------------|

G|------------------------------------------------------------------------------------------------|
D|7---8-------------------7---8---9---------------7---8---9---------------------------------------|
A|------------5---7---8-------------------8---9-------------------8---9---10--9---7---5---7---9---|
E|--------7---------------------------7-----------------------7-----------------------------------|

G|--------------------------------7-----------------------------------------------7---------------|
D|------------9---7-------------9-----7-----------------------9---7-------------9-----7-----------|
A|------5-9-----------9---10----------------------------5-9-----------9---10----------------------|
E|7-----------------------------------------------7-----------------------------------------------|

G|--------------------------------7---------------------------------------------------------------|
D|------------9---7-------------9-----7-----------------------------------------------------------|
A|------5-9-----------9---10----------------------9-----------------------------------------------|
E|7-----------------------------------------------------------------------------------------------|

1:45

G|----------------------------------------------------------------|
D|7---8---9-------9---------------7---8---9-------9---------------| x13
A|------------------------8---9---------------------------8---9---|
E|------------7-------7-----------------------7-------7-----------|

G|----------------------------------------------------------------|
D|7---8---9-------9---------------7---8---9-------9---------------|
A|------------------------8---9---------------------------8-------|
E|------------7-------7-----------------------7-------7-----------|

2:37

G|------------------------------------------------------------------------------------------------|
D|7---8---9---------------7---8---9---------------7---8---9---------------------------------------| x3
A|----------------8---9-------------------8---9-------------------8---9---10--9---7---5---7---9---|
E|------------7-----------------------7-----------------------7-----------------------------------|

G|------------------------------------------------------------------------------------------------|
D|7---8-------------------7---8-------------------7---8---9---------------------------------------|
A|------------5---7---8---------------5---7---8-------------------8---9---10--9---7---5---7---9---|
E|--------7-----------------------7---------------------------7-----------------------------------|

G|--------------------------------7-----------------------------------------------7---------------|
D|------------9---7-------------9-----7-----------------------9---7-------------9-----7-----------|
A|------5-9-----------9---10----------------------------5-9-----------9---10----------------------|
E|7-----------------------------------------------7-----------------------------------------------|

G|--------------------------------7---------------------------------------------------------------|
D|------------9---7-------------9-----7-----------------------------------------------------------|
A|------5-9-----------9---10----------------------9-----------------------------------------------|
E|7-----------------------------------------------------------------------------------------------|

3:14

G|------------------------------------------------------------------------------------------------|
D|------------------------------------------------------------------------------------------------|
A|------------------------------------------------------------------------------------------------|
E|------------------------------------------------------------------------------------------------|

G|------------------------------------------------------------------------------------------------|
D|------------------------------------------------------------------------------------------------|
A|------------------------------------------------------------------------------------------------|
E|------------------------------------------------------------------------------------------------|

G|------------------------------------------------------------------------------------------------|
D|------------------------------------------------------------------------------------------------|
A|------------------------------------------------------------------------------------------------|
E|------------------------------------------------------------------------------------------------|

G|------------------------------------------------------------------------------------------------|
D|----------------------------------------------------------------------------------------------/-|
A|------------------------------------------------9---9---9---9---9---9-/-9---9---9-/-9---9---9---|
E|------------------------------------------------------------------------------------------------|

3:40

G|------------------------------------------------------------------------------------------------|
D|9---9-9-9-/-9---9-9-9-/-9---9-9-9-/-9---7-----------------------------------------------7-----/-|
A|--------------------------------------------9-------------------------------------/-9-------9---|
E|------------------------------------------------7---7-7-7---7---7-7-7---7---7-7-7---------------|

G|------------------------------------------------------------------------------------------------|
D|9---9-9-9-/-9---9-9-9-/-9---9-9-9-/-9---7-------------------------------------------------------|
A|--------------------------------------------9-------------/-9---9---9---------------------------|
E|------------------------------------------------7---7---7---------------------------------------|

G|--------------------------------7-----------------------------------------------7---------------|
D|------------9---7-------------9-----7-----------------------9---7-------------9-----7-----------|
A|------5-9-----------9---10----------------------------5-9-----------9---10----------------------|
E|7-----------------------------------------------7-----------------------------------------------|

G|--------------------------------7---------------------------------------------------------------|
D|------------9---7-------------9-----7-----------------------------------------------------------|
A|------5-9-----------9---10----------------------9-----------------------------------------------|
E|7-----------------------------------------------------------------------------------------------|

G|------------------------------------------------|
D|------------------------------------------------|
A|------------------------\-----------------------|
E|------------------------------------------------|
Добавлено: 05.08.2015
Другие материалы по этой песне:
  • Аккорды и текст

Страница создана 05.08.2015
http://primanota.ru/purson/contract-chords.htm
Привет, Гость.
Предлагаем пройти революционный курс по гитаре.
Подарок от PrimaNota.Ru, забирай!