PrimaNota.ru - самый крупный в мире бесплатный архив песенных текстов, аккордов, табулатур и нот


Purple Hill Witch - Astral Booze - таба, видео

Регистрация Запомнить меня
Войти через:  Facebook Google Twitter Vk Yandex Mail.ru

Purple Hill Witch - Astral Booze - таба, видео

Печатать
Просмотров: 38
-------------------------------------------------------------------------------
                         ASTRAL BOOZE - Purple Hill Witch
-------------------------------------------------------------------------------
Tabbed by: Golgathor

Tuning: D# G# C# F# A# d#

RIFF I and VERSE 1
d#|----------------------------------------------------------|
A#|----------------------------------------------------------|
F#|----------------------------------------------------------|
C#|----------------------------------------------------------|
G#|-5/-7--7----x-x-14\12-14--9--9/-10--10----x-x-10--10/-12--|
D#|-3/-5--5----x-x-12\10-12--7--7/--8---8----x-x--8---8/-10--| 6x
(Verse starts on 3rd time)
Come a little closer my friend
Have a drink and watch the universe bend
Have a smoke at the dawn of time
Baby I'll show you when the planets align

RIFF II
d#|---------------------------------------------------------------|
A#|---------------------------------------------------------------|
F#|---------------------------------------------------------------|
C#|---------------------------------------------------------------|
G#|-14----14---14-14\12-12/14-14\12-10--7----7---7-7\5-5/7-7\5-5--|
D#|-12----12---12-12\10-10/12-12\10--8--5----5---5-5\3-3/5-5\3-3--| 4x

RIFF I and VERSE 2
(Play 4x)
To the left you can see the birth of stars
On the right you can see the destruction of Mars
Come on let's get set for emotion
Crawl on over and taste this potion

RIFF II and SOLO
(Play 8x)

RIFF III and VERSE 3
d#||---------------------------------------------------------|
A#||---------------------------------------------------------|
F#||---------------------------------------------------------|
C#||----------------------5----------------------------------|
G#||-7--7--7--7--7h8p7-----------7--7--7--7--7h8p7-----------|
D#||-5--5--5--5--------8-----8p7-5--5--5--5--------8--7br----|

d#|--------------------------------------------------------||
A#|--------------------------------------------------------||
F#|--------------------------------------------------------||
C#|----------------------5---------------------------------||
G#|-7--7--7--7--7h8p7-----------5--5--5--5-5--5/8--8\7-7/8-||
D#|-5--5--5--5--------8-----8p7-3--3--3--3-3--3/6--6\5-5/6-|| 6x
(Verse starts on 5th time)
The liquid truth takes away your soul on a stellar journey
The astral booze takes you down below to dance with the dead

RIFF IV and VERSE 4
d#|----------------------------------------------------------|
A#|----------------------------------------------------------|
F#|----------------------------------------------------------|
C#|-------7-----------7--------------------------------------|
G#|--------------------------7--7-7-7--7-7-7h8p7-7--7h8p7-7--|
D#|-5--5-----5--5--5----5-8----------------------------------| 6x
(Verse starts on 3rd time)
Bending time at the speed of light
Astral projecting into the night
I'll steer away from the pitch black hole
The sight of the horrors would haunt your soul

RIFF IV (SOLO) and VERSE 5
(Play 6x)
(Verse starts on 3rd time)
Full throttle babe you've got nothing to lose
Everyone should have a sip of the astral booze
Ascend descend has got nothing to say
In the universe there's only one highway

RIFF I and VERSE 6
(Play 6x)
(Verse starts on 3rd time)
Well alright now
Every little thing is alright
Gliding silent through the realm
And if you're afraid to pass just look up to the sky

RIFF II
(Play 4x)

OUTRO
d#|-------------------------------------------------------------------|
A#|-------------------------------------------------------------------|
F#|-------------------------------------------------------------------|
C#|-------7-----------7-----------------------------------------------|
G#|--------------------------7--7-7-7--7-7-7h8p7-7--7h8p7----7--------|
D#|-5--5-----5--5--5----5-8-------------------------------8--5--------|


************************************

| /   slide up
| \   slide down
| h   hammer-on
| p   pull-off
| ~   vibrato
| +   harmonic
| x   Mute note
| b   Bend
| pb  Pre-bend
| br  Bend release
| pbr Pre-bend release
| brb Bend release bend

************************************
Добавлено: 14.10.2015
Другие материалы по этой песне:
  • Аккорды и текст

Страница создана 14.10.2015
http://primanota.ru/purple-hill-witch/astral-booze-chords.htm
Привет, Гость.
Предлагаем пройти революционный курс по гитаре.
Подарок от PrimaNota.Ru, забирай!