PrimaNota.ru - самый крупный в мире бесплатный архив песенных текстов, аккордов, табулатур и нот


Puritys Demise - Welcome - таба, видео

Регистрация Запомнить меня
Войти через:  Facebook Google Twitter Vk Yandex Mail.ru

Puritys Demise - Welcome - таба, видео

Печатать
Просмотров: 62
Artist- Purity^Òs Demise
Song- welcome
Tabed by Cubby

This is by a kick ass band from Cape Cod mass; it^Òs in drop D tuning
DADGBe

-----------------------------------
----------------------------------
-----------------------------------
-------------------------5-----3--            intro 4x
--0^×2/3---0----0----------------
0----0-----0----0--0-------------


-----------------------------------
-----------------------------------
-----------------------------------
------------------------------5---3         last time
--0----2/3----0----0-----^×5---3
0---0-------0---0----0-----5---3


Chorus

------------------------------------
-----------------------------------
------------------------------------
0-00-0^×00-000^×5----3------       4x
0-00-0---00-000---5----3------
0-00-0---00-000---5----3------


Verse

xxxx----------xxxx---------xxxx-----------xxxx----------
xxxx----------xxxx6/7--7-xxxx-----------xxxx---4/5--5
xxxx5/7777xxxx---------xxxx5/7777-xxxx-----------
xxxx----------xxxx---------xxxx-----------xxxx-----------         2x
xxxx----------xxxx---------xxxx ----------xxxx-----------
xxxx----------xxxx---------xxxx-----------xxxx-----------



xxxx---------xxxx-------xxxx-------------xxxx----------
xxxx---------xxxx6/7--7xxxx-----------xxxx4/5--5
xxxx5/7777xxxx-------xxxx5/7777xxxx-----------
0000--------0000-------0000---------0000-----------         2x
0000--------0000-------0000---------0000-----------
0000--------0000-------0000---------0000-----------

bridge

------------------------
------------------------
------------------------
0-xx-0---3335555^×     3x
0-xx-0----------------
0-xx-0----------------

------------------------
----------8886666---
------------------------
0-00-0----------------     5x
0-00-0----------------
0-00-0----------------


------------------------
------------------------
------------------------
-----------3335555--
------------------------
0000000000000000

end
---------------------------------
--------------------------6/8--8
-------------5/7777------------
0--------------------------------
0--------------------------------
0--------------------------------


intro
verse
chorus
Verse
Chorus
Bridge
Chorus
End

_________________________________________________________________
     
Добавлено: 03.10.2013
Другие материалы по этой песне:
  • Аккорды и текст

Страница создана 03.10.2013
http://primanota.ru/puritys-demise/welcome-chords.htm
Привет, Гость.
Предлагаем пройти революционный курс по гитаре.
Подарок от PrimaNota.Ru, забирай!