PrimaNota.ru - самый крупный в мире бесплатный архив песенных текстов, аккордов, табулатур и нот


Purity Ring - Bodyache - таба, видео

Регистрация Запомнить меня
Войти через:  Facebook Google Twitter Vk Yandex Mail.ru

Purity Ring - Bodyache - таба, видео

Печатать
Просмотров: 90
Уроки эстрадного вокала в Санкт-Петербурге
Standard Tuning. No capo. This is what I used for my cover which you can listen to here: 

https://www.youtube.com/watch?v=ML2g_z_EqmI




Intro:

e|---5--5--5-/--8--7--7-\--3---3---(x2)--------------------------|
B|---------------------------------------------------------------|
G|---------------------------------------------------------------|
D|---------------------------------------------------------------|
A|---------------------------------------------------------------|
E|---------------------------------------------------------------|

Verse 1:

e|---8-----------8------------8-8---------8-8----------8----------8------------8-8----------------------------|
B|------10-8-10----10-8-10--------10-8-8------10-10-8----10-8-10----10-10----------10-8-10------8-8---10-8----|
G|-------------------------9----------------------------------------------9-9--------------9-9------9---------|
D|------------------------------------------------------------------------------------------------------------|
A|------------------------------------------------------------------------------------------------------------|
E|------------------------------------------------------------------------------------------------------------|

Pre-Chorus:

e|-------------------------------------------------------------------------------------|
B|-----5-----5-----5-----5-5-------------5----------5-----5-----8----8-8--5------------|
G|-5-7---5-7---5-7---5-5-----7-5-7-7-5-7---7-5---5-7---5-7---5-5--7-7--------7-7-7-5-7-|
D|---------------------------------------------7---------------------------------------|
A|-------------------------------------------------------------------------------------|
E|-------------------------------------------------------------------------------------|

Chorus:

e|-8-8-8-8-8-8-8-10-8-7-7-7-7-7-7-7-7-8-7-5--(x2)----------------|
B|---------------------------------------------------------------|
G|---------------------------------------------------------------|
D|---------------------------------------------------------------|
A|---------------------------------------------------------------|
E|---------------------------------------------------------------|

Verse 2: (You could use verse 1 but there are a few little notes that are different here)

e|-8-----------8-------------8-8------8---------------------8-----------8-----------8-8----------------|
B|---10-8-10-----10-8-10---------10-8---10-10-10-10---8-10-----10-8-10------10-8-10-----10-8-10-8--10-8|
G|-----------9-----------9-9------------------------9-----9------------9-----------9-------------9-----|
D|-----------------------------------------------------------------------------------------------------|
A|-----------------------------------------------------------------------------------------------------|
E|-----------------------------------------------------------------------------------------------------|



Pre-Chorus:

e|-------------------------------------------------------------------------------------|
B|-----5-----5-----5-----5-5-------------5----------5-----5-----8----8-8--5------------|
G|-5-7---5-7---5-7---5-5-----7-5-7-7-5-7---7-5---5-7---5-7---5-5--7-7--------7-7-7-5-7-|
D|---------------------------------------------7---------------------------------------|
A|-------------------------------------------------------------------------------------|
E|-------------------------------------------------------------------------------------|

Chorus:

e|-8-8-8-8-8-8-8-10-8-7-7-7-7-7-7-7-7-8-7-5--(x2)----------------|
B|---------------------------------------------------------------|
G|---------------------------------------------------------------|
D|---------------------------------------------------------------|
A|---------------------------------------------------------------|
E|---------------------------------------------------------------|


"I wanna know what's your...":

e|-0-0-0-0------0-0-0-0-----------------------------------|
B|---------3-1----------3-1---1----1---1/--3-----(x2)-0---|
G|-------------------------------2------------------------|
D|--------------------------------------------------------|
A|--------------------------------------------------------|
E|--------------------------------------------------------|

"I lied now I'm lying awake...":

e|-3--3---3-3-3-0-------0---------0---------3--3--3-3-3-0--------8-8-8-10-8-7---8-8-8-10-8-7-|
B|----------------1--3----3--1--3---3--1------------------1--3-------------------------------|
G|---------------------------------------2---------------------------------------------------|
D|-------------------------------------------------------------------------------------------|
A|-------------------------------------------------------------------------------------------|
E|-------------------------------------------------------------------------------------------|


Chorus:

e|-8-8-8-8-8-8-8-10-8-7-7-7-7-7-7-7-7-8-7-5--(x2)----------------|
B|---------------------------------------------------------------|
G|---------------------------------------------------------------|
D|---------------------------------------------------------------|
A|---------------------------------------------------------------|
E|---------------------------------------------------------------|



"Now I'm lying awake, now I'm lying awake. Until my bodyache until my bodyache, I I I cry till my body":

e|-8-8-8-10-8-7--(x2)--7-7-7-7-8-7-5-7-7-7-7-8-7-5---7-7-7-7-7-7-7-8-7---|
B|-------------------------------------------------8---------------------|
G|-----------------------------------------------------------------------|
D|-----------------------------------------------------------------------|
A|-----------------------------------------------------------------------|
E|-----------------------------------------------------------------------|


Outro:
e|---5--5--5-/--8--7--7-\--3---3---(x2)--------------------------|
B|---------------------------------------------------------------|
G|---------------------------------------------------------------|
D|---------------------------------------------------------------|
A|---------------------------------------------------------------|
E|---------------------------------------------------------------|
Добавлено: 04.11.2015
Вам также может быть интересно:
Другие материалы по этой песне:
  • Аккорды и текст

Страница создана 04.11.2015
http://primanota.ru/purity-ring/bodyache-chords.htm
Привет, Гость.
Предлагаем пройти революционный курс по гитаре.
Подарок от PrimaNota.Ru, забирай!