PrimaNota.ru - самый крупный в мире бесплатный архив песенных текстов, аккордов, табулатур и нот


Puretones - Addicted To Bass - бас-таба, видео

Регистрация Запомнить меня
Войти через:  Facebook Google Twitter Vk Yandex Mail.ru

Puretones - Addicted To Bass - бас-таба, видео

Печатать
Просмотров: 49
-------------------------------------------------------------------------------
                             ADDICTED TO BASS - Puretones
-------------------------------------------------------------------------------
Tabbed by: 1woody1
E-mail: wout.lenders@gmail.com

Tuning: Standard

Intro & 1st verse without bass

Verse 2 (0:45)
   very punctuated            
G|---------------------------------|-------------------------------------|
D|-6-6-6-6-4-4-4-4-2-2-2-2-1-1-1-1-|-11-11-11-11-9-9-9-9-8-8-8-8-7-7-7-7-|
A|---------------------------------|-------------------------------------|
E|---------------------------------|-------------------------------------|

G|---------------------------------|-------------------------------------|
D|-6-6-6-6-4-4-4-4-2-2-2-2-1-1-1-1-|-1-----------------------------------|
A|---------------------------------|-------------------------------------|
E|---------------------------------|-------------------------------------|

Chorus (0:57): heavily distorted
G|---------------------------------|-------------------------------------|
D|---------------------------------|-------------------------------------|
A|-11------------------------------|-11----------------------------------| x2
E|-----11--10----------------------|-----11--10--------------------------|

                (wobbly sound)
G|----------------------------------------|-------------------------------------|
D|----------------------------------------|-------------------------------------|
A|-11-------------------------------------|-11----------------------------------| x2
E|-----11--10---(10-11-10-11-10-11-10-11)-|-----11--10---(10-11-10-11-10--11)---|

The rest of song are repeats

===============================================================================
Добавлено: 15.12.2015
Другие материалы по этой песне:
  • Аккорды и текст

Страница создана 15.12.2015
http://primanota.ru/puretones/addicted-to-bass-chords.htm
Привет, Гость.
Предлагаем пройти революционный курс по гитаре.
Подарок от PrimaNota.Ru, забирай!