PrimaNota.ru - самый крупный в мире бесплатный архив песенных текстов, аккордов, табулатур и нот


Pur - Leben - бас-таба, видео

Регистрация Запомнить меня
Войти через:  Facebook Google Twitter Vk Yandex Mail.ru

Pur - Leben - бас-таба, видео

Печатать
Просмотров: 88
Уроки эстрадного вокала в Санкт-Петербурге
Авторы текста: Hartmut Engler
                                            Artist:	PUR
Song:	Leben
---------------------------------------------------------------
First only Keyboards:
Verse 1
Chorus

Now starts the bass:

Verse 2:

G|--2---2-2-------------------------------------0-2-4h5p2--|
D|-----------2-3---3-3----0---0-2--------------------------|
A|-----------------------------------0---0-0---------------|
E|---------------------------------------------------------|


G|--2---2-2----------------------------------------|
D|-----------2-3---3-3----0---0-2------------------|
A|-----------------------------------0---0-0----3--|
E|-------------------------------------------------|



Chorus 1:

G|---------------------------------------------------------|
D|--0---0-0----2---2-2--2---20235----3-3-0235-----3--------|
A|-----------------------023-------3-----------3-----0-----|
E|------------------------------------------------------3--|


G|--------------2--0--0---|
D|----33320235------------|
A|--3------------------3--|
E|------------------------|




Guitarsolo 1:

G|----------------------------------------------------------|
D|--1----------------------------------------------------1--|
A|---------------------1---3---------3-1-3-1---2--2-4--4----|
E|-----4-4---4-3-1---1-------1-3-4--------------------------|


G|---------------------|
D|------1-1-1----------|
A|--1-3-------------1--|
E|--------------4------|




Chorus 2:

G|---------------------------------|
D|-----3-3---320235----023---------|
A|--3-----------------3------------|
E|---------------------------5-53--|


G|------------------------------|
D|-----3-3---320235------5--53--|
A|--3-----------------0---------|
E|------------------------------|


G|---------------------------|
D|---------------75--53------|
A|-------------0-------------|
E|--(13)/1111------------11--|



Solo at the end:

Improvise the end

G|---------------------|
D|---------------------|
A|--starting here:--3--|
E|---------------------|

Have a lot of fun!


This Song was tabbed by FRIXXX

     
Добавлено: 07.10.2013
Другие материалы по этой песне:

Страница создана 03.05.2012
http://primanota.ru/pur/leben-chords.htm
Привет, Гость.
Предлагаем пройти революционный курс по гитаре.
Подарок от PrimaNota.Ru, забирай!