PrimaNota.ru - самый крупный в мире бесплатный архив песенных текстов, аккордов, табулатур и нот


Pup - Reservoir - таба, бас-таба, видео

Регистрация Запомнить меня
Войти через:  Facebook Google Twitter Vk Yandex Mail.ru

Pup - Reservoir - таба, бас-таба, видео

Печатать
Просмотров: 189
Уроки эстрадного вокала в Санкт-Петербурге
-------------------------------------------------------------------------------
                            Reservoir - PUP
-------------------------------------------------------------------------------
Tabbed by: Dane
E-mail: hiitsdane@gmail.com
i accidentally figured this out.... i don't know the rest

Tuning: Standard

e|---------------------------------------------------------------------------|
B|---------------------------------------------------------------------------|
G|---------------------------------------------------------------------------|
D|---------------------------------------------------------------------------|
A|------------5----------------5-------------5------5 5 5 5 5 7--------------|
E|--7-7-7-7-7---7-5-7-7-7-7-7------7-7-7-7-7---7--5--------------------------|  

e|---------------------------------------------------------------------------|
B|---------------------------------------------------------------------------|
G|---------------------------------------------------------------------------|
D|-----------------------7---------------------------------------------------|
A|---------- 5-----------5----7----------------------------------------------|
E|7 7 7 7 7-----7 5 ----------5----------------------------------------------|




************************************

| /   slide up
| \   slide down
| h   hammer-on
| p   pull-off
| ~   vibrato
| +   harmonic
| x   Mute note
| b   Bend
| pb  Pre-bend
| br  Bend release
| pbr Pre-bend release
| brb Bend release bend

************************************
Добавлено: 24.11.2014
Другие материалы по этой песне:
  • Аккорды и текст

Страница создана 24.11.2014
http://primanota.ru/pup/reservoir-chords.htm
Привет, Гость.
Предлагаем пройти революционный курс по гитаре.
Подарок от PrimaNota.Ru, забирай!