PrimaNota.ru - самый крупный в мире бесплатный архив песенных текстов, аккордов, табулатур и нот


Punkreas - Zingari - аккорды и текст, таба, видео

Регистрация Запомнить меня
Войти через:  Facebook Google Twitter Vk Yandex Mail.ru

Punkreas - Zingari - аккорды и текст, таба, видео

Печатать
Просмотров: 134
Уроки эстрадного вокала в Санкт-Петербурге
Zingari
Punkreas
		   --------


Zingari - Punkreas

A strofa di questa canzone è eseguita con gli accordi
tradizionali però fatti tutti con il barrè in questo
modo si può ricreare il ritmo ska.

L'introduzione è formata dalla sucessione degli
accordi Bm G Bm Am per la prima chitarra e la
seconda fa questo pezzo

riff1
-------8-9-8-9---9-8-9---9-8-9-11-9-8-----------
---------------8-------9------------------------
------------------------------------------------
------------------------------------------------
------------------------------------------------
------------------------------------------------

Questo riff1 va eseguito tra una strofa e l'altra come
stacco musicale

la strofa ha questa successione di
accordi (sempre con barrè) per la chitarra1. Ci sarebbe
anche una chitarra2 che fa il pezzo quì sotto. Non sono
tanto sicuro che faccia così però più o meno.....

------------------------------------------------------
------------------------------------------------------
------------------------------------------------------
---9-9--5-5--7-7--9-8-7-6-5---------------------------
---9-9--5-5--7-7--9-8-7-6-5---------------------------
---7-7--3-3--5-5--7-6-5-4-3---------------------------



strofa

Bm                    G
chiudete le finestre sbarrate le persiane
Bm                   Am
pericolo in città di nuovo carovane
Bm              G
nomadi gittani con abiti sfarzosi
Bm                    Am
si vede a prima vista che son pericolosi
Bm      G               Bm                       Am
cara io vado dai vicini tu chiudi con la chiave e porta su i bambini
Bm                      G
se fanno i capricciosi e non vogliono dormire
Bm                        Am
racconta che gli zingari li vengono a rapire

Tra questa e l'altra strofa c'è il riff1.
A seconda strofa è uguale fino al pezzo prima
del ritornello:

Bm          G           Am    Am G#
Conseguenza fu la deportazione
Bm          G           Am    Am G#
la violenza la gran persecuzione
Bm           G          Am      Am G#
le bottiglie lanciate nella notte
Bm          G             A
molti roghi nessuno se ne fotte

Nel ritornello cambia accompagnamento
e diventa un accompagnamento punk con
con powerchords e distorsione

-----------------------------------------------
-----------------------------------------------
-----------------------------------------------
----9-9-9-9-9-9---5-5-5-5-5-5---7-7-7-7-7-7----
----9-9-9-9-9-9---5-5-5-5-5-5---7-7-7-7-7-7----
----7-7-7-7-7-7---3-3-3-3-3-3---5-5-5-5-5-5----
"Girovagando per il mondo..."


Dopo il primo ritornello c'è il solo di chitarra

----9-8-9-11-9-8--------------------------------9-----9------------
-----------------9-8--------------------8-8-9-9---8-----8----------
---------------------9-8--------8-8-9-9-------------8-----7-8-7-8--
-------------------------8-8-9-9-----------------------------------
-------------------------------------------------------------------
-------------------------------------------------------------------

Tra il il penultimo e l'ultimo ritornello c'è uno stacco
dove si ripetono per due volte gli accordi del ritornello
senza voce.


nello stacco finale una chitarra fa la successione Bm G Bm Am
e l'altra questo

--------9-9-9-9-8-7-5-3-------9-9-9-9-8-7-5-3-5-7------------
--7-7-7-----------------7-7-7---------------------7----------
-------------------------------------------------------------
-------------------------------------------------------------
-------------------------------------------------------------
-------------------------------------------------------------









PUNKREAS
"ZINGARI" DA PELLE

Strofa: tutti gli accordi sono in barrè
in questo modo si può ricreare il ritmo in levare tipico dello ska.


riff1 (x2)
      Dm   A#      C#m  A       Dm   A#       C       (A A G# A) solo la 1° volta
e|-------------------------------------------------------
B|---------11-10--8-----11-10--6-----11-10-11-13--11-10--
G|---5-7------------6------------7-----------------------
D|--7----------------------------------------------------
A|-------------------------------------------------------
E|-------------------------------------------------------

Questo riff1 va eseguito tra una strofa e l'altra come stacco musicale
Strofa
------
Dm              A#                   G
 Chiudete le finestre sbarrate le persiane
                F    E        Dm
 pericolo in città di nuovo carovane
Dm         A#                 G
 Nomadi gitani con abiti sfarzosi
                 F        E          Dm
 si vede a prima vista che son pericolosi-
Dm        A#                 G
 -cara io vado dai vicini tu chiudi con la chiave
   F             E
 e porta su i bambini
   Dm                         A#
 se fanno i capricciosi e non vogliono dormire
   G                         F           E
 racconta che gli zingari li vengono a rapire

riff1 (x2)

Strofa  (Dm A# G F E)
------
 Cultura millenaria  usanze e tradizioni
 e non soltanto giostre furti o baracconi
 A grande maggioranza  non sa che stiam parlando
 di gente che ha deciso di vivere viaggiando
 Ma noi  adoratori di proprietà e lavoro
 vediam la vita  da dietro un paraocchi
 pur di evitare di comprendere la loro..

Bridge
------
Dm     A#       C          F  E  Dm
 Conseguenza fu la deportazione
Dm     A#       C           F  E  Dm
 la violenza la gran persecuzione
Dm     A#       C            F  E  Dm
 le bottiglie lanciate nella notte
Dm     A#       C
 molti roghi nessuno se ne fotte

/* Nel ritornello cambia accompagnamento
   e diventa un accompagnamento punk con
   con powerchords e distorsione           */

Rit
---
 Dm    A#           C        A
 Girovagando per il mondo  aprendo buchi
    Dm       A#             C         C#
 in una rete che trascina a fondo  tu pensa che

 Girovagare per il mondo  restare in movimento

 non può che fare rabbia  a chi si sente in gabbia


Solo   Dm  A#  C#m  A  Dm  A#  C (A A G# A)
----

Strofa  (Dm A# G F E)
------
 Ma vince la paura  di averli qua vicino
 che saltino le mura  entrando nel giardino
 A classica trovata  per questo malcontento
 è far come John Wayne  bruciar l'accampamento
 Però  a differenza degli indiani coi cow-boy
 nella speranza di vederli come eroi..

Bridge
------

Rit   Rit + solo    Rit
---   ---           ---

20:30 19 Feb 2003
thanx to [Marco.M.]
marco182@libero.it
	     
Добавлено: 09.11.2013
Другие материалы по этой песне:
  • Аккорды и текст

Страница создана 20.07.2012
http://primanota.ru/punkreas/zingari-chords.htm
Привет, Гость.
Предлагаем пройти революционный курс по гитаре.
Подарок от PrimaNota.Ru, забирай!