PrimaNota.ru - самый крупный в мире бесплатный архив песенных текстов, аккордов, табулатур и нот


Punkreas - Ultima Notte - таба, видео

Регистрация Запомнить меня
Войти через:  Facebook Google Twitter Vk Yandex Mail.ru

Punkreas - Ultima Notte - таба, видео

Печатать
Просмотров: 61
		   --------


Ultima Notte da Elettrodomestico

INTRO & VERSI

Chitarra 1
    x  .  x  .  x  .  x  .    x  .  x  .  x  .  x  .
e:|----8-----8-----8-----8--|----7-----7-----7-----7--|
B:|----8-----8-----8-----8--|----9-----9-----9-----9--|
G:|----9-----9-----9-----9--|----9-----9-----9-----9--|
D:|----10----10----10----10-|----9-----9-----9-----9--|
A:|-------------------------|-------------------------|
E:|-------------------------|-------------------------|

    x  .  x  .  x  .  x  .    x  .  x  .  x  .  x  .
e:|----5-----5-----5-----5--|----1-----1-----3-----8--|
B:|----5-----5-----5-----5--|----1-----1-----3-----8--|
G:|----6-----6-----6-----6--|----2-----2-----4-----9--|
D:|----7-----7-----7-----7--|----3-----3-----5-----10-|
A:|-------------------------|-------------------------|
E:|-------------------------|-------------------------|

    x  .  x  .  x  .  x  .    x  .  x  .  x  .  x  .
e:|-8--8-----8-----8-----8--|----7-----7-----7-----5--|
B:|-8--8-----8-----8-----8--|----9-----9-----9-----5--|
G:|-9--9-----9-----9-----9--|----9-----9-----9-----6--|
D:|-10-10----10----10----10-|----9-----9-----9-----7--|
A:|-------------------------|-------------------------|
E:|-------------------------|-------------------------|

    x  .  x  .  x  .  x  .    x  .  x  .  x  .  x  .
e:|-5--5-----5-----5-----1--|-1--1-----3--3--3--------|
B:|-5--5-----5-----5-----1--|-1--1-----3--3--3--------|
G:|-6--6-----6-----6-----2--|-2--2-----4--4--4--------|
D:|-6--7-----7-----7-----3--|-3--3-----5--5--5--------|
A:|-------------------------|-------------------------|
E:|-------------------------|-------------------------|
                              Parte la batteria

A chitarra 1 continua a ripetere varianti dello stesso giro di accordi
attraverso tutti i versi. Le pennate sono in stile Ska (in controtempo verso
il
mi basso). Le tre pennate consecutive (sui secondi DO, LA, FA e SOL) vanno
fatte, la prima verso il mi cantino, la seconda tornando giù verso il mi
cantino
e poi riprendendo nella terza e seguenti il normale ritmo Ska verso il mi
basso.


Chitarra 2
riff 1
e:|-----------------------------------------|
B:|-----------------------------------------|
G:|----------7----9-7-9-10-10-10-9-10----7--|
D:|-10-10-10---10---------------------10----|
A:|-----------------------------------------|
E:|-----------------------------------------|

e:|----------------------------------------|
B:|----------------------------------------|
G:|----------7-----------------------------|
D:|-10-10-10---10-9-7-9-10-10-10-7-9-10-7--|
A:|----------------------------------------|
E:|----------------------------------------|


riff 2
e:|--------------------------------------|
B:|-8------8-----------------------------|
G:|---10-9---10-9------------------------|
D:|----------------10-12-12-10-12-10-12--|
A:|--------------------------------------|
E:|--------------------------------------|

e:|------------------------------|
B:|-8------8--------8------------|
G:|---10-9---10-9-9---10-9-10-9--|
D:|------------------------------|
A:|------------------------------|
E:|------------------------------|

riff 3
e:|-------------------------------------|
B:|-------------------------------------|
G:|----------7----9-7-9-----7-9-10-9-7--|
D:|-10-10-10---10-------10--------------|
A:|-------------------------------------|
E:|-------------------------------------|

e:|----------------------------------------|
B:|----------------------------------------|
G:|----------7-----------------------------| questa parte è uguale alla
seconda
D:|-10-10-10---10-9-7-9-10-10-10-7-9-10-7--| del riff 1
A:|----------------------------------------|
E:|----------------------------------------|

riff 4
e:|-------------------------------------------|
B:|----------------------------------10-8-----|
G:|----------7----9-7-9----------7-9------9-7-|
D:|-10-10-10---10-------10-10-10--------------|
A:|-------------------------------------------|
E:|-------------------------------------------|

e:|-----------------------------------10---------|
B:|---------------------10-10-10-8-10----10-8----|
G:|----------7------7-9-----------------------9--|
D:|-10-10-10---10-9------------------------------|
A:|----------------------------------------------|
E:|----------------------------------------------|

e:|---------------------------------------------------------|
B:|---------------------------------------------------------|
G:|---------------7-9-10-9-7-9----10-9-7-10-9-7-9-9-7-10-9--|
D:|--------7-9-10-------------------------------------------|
A:|-7-8-10--------------------------------------------------|
E:|---------------------------------------------------------|

e:|---------------------------------------------------------|
B:|-------------------------------10-8---10-8---------------|
G:|---------------7--------------------9------9-9-9-7-10-9--|
D:|--------7-9-10---9-10-9-7-9------------------------------|
A:|-7-8-10--------------------------------------------------|
E:|---------------------------------------------------------|

RITORNELLO (io non gioco più..)
Chitarra 1
                |============ palm muting ============|
    x  .  x  .  x  .  x  .    x  .  x  .  x  .  x  .
e:|-------------------------|-------------------------|
B:|-------------------------|-------------------------|
G:|-5--5--5--5--5--5--5--5--|-------------------------| 2 volte
D:|-5--5--5--5--5--5--5--5--|-3--3--3--3--5--5--5--5--|
A:|-3--3--3--3--3--3--3--3--|-3--3--3--3--5--5--5--5--|
E:|-------------------------|-1--1--1--1--3--3--3--3--|

Chitarra 2
    x  .  x  .  x  .  x  .    x  .  x  .  x  .  x  .
e:|----------3-----3-----3--|----1-----1-----3-----3--|
B:|----------5-----5-----5--|----1-----1-----3-----3--| 2 volte
G:|----------5-----5-----5--|----2-----2-----4-----4--| la seconda senza le
D:|----------5-----5-----5--|----3-----3-----5-----5--| ultime 2 pennate
A:|-------------------------|-------------------------|
E:|-------------------------|-------------------------|

PONTE (e mentre seguo il suo volo..)
Chitarra 1
     x  .  x  .  x  .  x  .     x  .  x  .  x  .  x  .
e:|--------------------------|--------------------------|
B:|--------------------------|--------------------------|
G:|--5-----5-----5--5--------|--------------------------|
D:|--5-----5-----5--5--------|--5-----5--5-----5--5-----|
A:|--3-----3-----3--3--------|--5-----5--5-----5--5-----|
E:|--------------------------|--3-----3--3-----3--3-----|

     x  .  x  .  x  .  x  .     x  .  x  .  x  .  x  .
e:|--------------------------|--------------------------|
B:|--------------------------|--------------------------|
G:|--9-----9-----9--9--------|--10----10----10----10-10-|
D:|--9-----9-----9--9--------|--10----10----10----10-10-|
A:|--7-----7-----7--7--------|--8-----8-----8-----8--8--|
E:|--------------------------|--------------------------|

Chitarra 2 (segue la 1 quasi sempre tranne verso la fine che arpeggia così)
e:|-8-----|-3-----|-0-----|-1-----|
B:|---8---|---3---|---0---|---1---|
G:|-----9-|-----4-|-----0-|-----2-|
D:|-------|-------|-------|-------|
A:|-------|-------|-------|-------|
E:|-------|-------|-------|-------|






     
Добавлено: 16.10.2013
Другие материалы по этой песне:

Страница создана 26.03.2012
http://primanota.ru/punkreas/ultima-notte-chords.htm
Привет, Гость.
Предлагаем пройти революционный курс по гитаре.
Подарок от PrimaNota.Ru, забирай!