PrimaNota.ru - самый крупный в мире бесплатный архив песенных текстов, аккордов, табулатур и нот


Punkreas - Terzo Mondo - текст песни, таба, видео

Регистрация Запомнить меня
Войти через:  Facebook Google Twitter Vk Yandex Mail.ru

Punkreas - Terzo Mondo - текст песни, таба, видео

Печатать
Просмотров: 98
		   --------


"TERZO MONDO" DA PELLE


riff 1
------------------------------------------
------------------------------------------
------------------------------------------
-----9-9-9-9-7-7-7-7-6-6-6-6-4-4-4-4------
-----9-9-9-9-7-7-7-7-6-6-6-6-4-4-4-4------
-----7-7-7-7-5-5-5-5-4-4-4-4-2-2-2-2------

Questo riff è valido per tutte le strofe della
canzone e anche per il ritornello, ma con una
pennata più veloce.

riff 2
------------------------------------------
------------------------------------------
-----9-9-9-8-8-8--------------------------
-----9-9-9-8-8-8--------------------------
-----7-7-7-6-6-6--------------------------
------------------------------------------
"...per noi rimane anche più bello."

Questo riff va eseguito nei pezzi del ritornello
che iniziano con:"Ma il terzo mondo..."
Il pezzo iniziale si svolge normalmente con il
riff 1, e per pezzo finale:"...per noi rimane anche
più bello." si esegue il riff 2.


riff 3
-----------------------------------------------------
-----------------------------------------------------
---------------------9-9-9-9-8-8-8-8--0--------------
-----7-7-7-7-6-6-6-6-9-9-9-9-8-8-8-8--2--------------
-----7-7-7-7-6-6-6-6-7-7-7-7-6-6-6-6--2--------------
-----5-5-5-5-4-4-4-4---------------------------------
"....il mito del progresso..."

Questo riff è l'unica eccezzione della canzone e
si svolge nell'ultimo pezzo del ritornello (quello
quello dalle parole sotto la tabulatura).


Penso che se vi sembra migliore possiate anche farla tutta
alzata di mezzo tono.




     
Добавлено: 08.10.2013
Другие материалы по этой песне:
  • Аккорды и текст

Страница создана 08.10.2013
http://primanota.ru/punkreas/terzo-mondo-chords.htm
Привет, Гость.
Предлагаем пройти революционный курс по гитаре.
Подарок от PrimaNota.Ru, забирай!