PrimaNota.ru - самый крупный в мире бесплатный архив песенных текстов, аккордов, табулатур и нот


Punkreas - Lorologio - текст песни, таба, видео

Регистрация Запомнить меня
Войти через:  Facebook Google Twitter Vk Yandex Mail.ru

Punkreas - Lorologio - текст песни, таба, видео

Печатать
Просмотров: 104
		   --------


L'OROLOGIO DA PARANOIA E POTERE


dopo l'introduzione solo vocale c'è questo riff

riff intro
--------------------------------
--------------------------------
------9-9-9-9-9-9-7-9-7-5-7-9---
------9-9-9-9-9-9-7-9-7-5-7-9---
------7-7-7-7-7-7-5-7-5-3-5-7---
--------------------------------

riff strofa
--------------------------------
--------------------------------
------9-9-9-9-9-9-7-9-7-5-7-9---
------9-9-9-9-9-9-7-9-7-5-7-9---
------7-7-7-7-7-7-5-7-5-3-5-7---
--------------------------------
il ritornello
va eseguito con questo riff

--------------------------------
--------------------------------
-9--------7-------5-------7-7---
-9-(x9)---7-(x9)--5-(x9)--7-7---
-7--------5-------3-------5-5---
--------------------------------
tutti i meccanismi......

finito il rit ritorna l'introduzione poi prosegue il
riff
strofa fino al secondo ritornello quando il testo
dice
...che ora posso far saltare nel frangente che mi
pare..."

Il finale quando canta " è ora è ora" è così
---------------------------------
---------------------------------
----7---9-9----------------------
----7---9-9----------------------
----5---7-7----------------------
---------------------------------

poi quando dice "ma ora il tempo abbiam fermato...."
fino alla fine del testo fa così
------------------------------------
------------------------------------
--9-------7------5------7------9----
--9-(x8)--7-(x8)-5-(x8)-7-(x8)-9-(x8)
--7-------5------3------5------7----
------------------------------------
come finale solo strumentale si fa l'introduzione
per due volte

Ho anche provato ha cercare il solo per chitarra e
penso faccia così
-9-8-7-------9-8-7---------9-8-7----------------------------------------------------
------9-7---------9-7------------9-7-----7-9--------------------------------------
---------9-----------9-7-------------9-9-----9-9(x6)-7-9-7-5-7-9-9(x6)-7-912----




     
Добавлено: 05.10.2013
Другие материалы по этой песне:

Страница создана 24.04.2012
http://primanota.ru/punkreas/lorologio-chords.htm
Привет, Гость.
Предлагаем пройти революционный курс по гитаре.
Подарок от PrimaNota.Ru, забирай!