PrimaNota.ru - самый крупный в мире бесплатный архив песенных текстов, аккордов, табулатур и нот


Punkreas - Il Vicino.2 - таба, видео

Регистрация Запомнить меня
Войти через:  Facebook Google Twitter Vk Yandex Mail.ru

Punkreas - Il Vicino.2 - таба, видео

Печатать
Просмотров: 89
		   --------


IL VICINO - Isterico


 ----------------------------------------------------------------
 ----------------------------------------------------------------
 ---5-5-5--2-2-2-------------------------------------------------
 ---5-5-5--2-2-2--3-3-3--5-5-5-----------------------------------   chitarra
 ---3-3-3--0-0-0--3-3-3--5-5-5-----------------------------------
 -----------------1-1-1--3-3-3-----------------------------------


****************************************************************************
***********

 ritornello


 ----------------------------------------------------------------
 ----------------------------------------------------------------
 ----------6-6-6--7-7-7--9-9-9-----------------------------------
 ---7-7-7--6-6-6--7-7-7--9-9-9-----------------------------------   chitarra
 ---7-7-7--4-4-4--5-5-5--7-7-7-----------------------------------
 ---5-5-5--------------------------------------------------------


                          IL VICINO - Isterico
                         *correzione per basso*



 ----------------------------------------------------------------
 ----------------------------------------------------------------
 ---3-3---0-0---------------------------------------------------- basso
 -----------------1-1-3-3-5-2------------------------------------

 oppure:

-----------------------------------------------------------------
 ----------------------------------------------------------------
 ---3-3---------------------------------------------------------- basso
 --------5-5--1-1-3-3-5-2----------------------------------------

(questione di comodità....decidete voi...)
****************************************************************************
***********

 ritornello



 ----------------------------------------------------------------
 ------------2-2-2-2-2--3-3-3-3-3--5-5-5-5-5---------------------
 --3-3-3-3-3-----------------------------------------------------  basso
 ----------------------------------------------------------------


 -----------------------------------5-3--------------------------
 -----------2-2-2-2-2--3-3-3-3-3-3------3------------------------ II volta
 --3-3-3-3-3-----------------------------------------------------
 ----------------------------------------------------------------







     
Добавлено: 07.09.2013
Вам также может быть интересно:
Другие материалы по этой песне:
  • Аккорды и текст

Страница создана 07.09.2013
http://primanota.ru/punkreas/il-vicino2-chords.htm
Привет, Гость.
Предлагаем пройти революционный курс по гитаре.
Подарок от PrimaNota.Ru, забирай!