PrimaNota.ru - самый крупный в мире бесплатный архив песенных текстов, аккордов, табулатур и нот


Punkreas - Il Vicino - таба, видео

Регистрация Запомнить меня
Войти через:  Facebook Google Twitter Vk Yandex Mail.ru

Punkreas - Il Vicino - таба, видео

Печатать
Просмотров: 114
Song: Il Vicino
Artist: Punkreas

Verse

Guitar I
   C         A       F         G
e|--8-x--8-x-5-x-5-x-----------3-x-3-x-| 
B|--8-x--8-x-5-x-5-x-10-x-10-x-3-x-3-x-|
G|--9-x--8-x-6-x-6-x-10-x-10-x-4-x-4-x-|
D|-10-x-10-x-7-x-7-x-10-x-10-x-5-x-5-x-|
A|-------------------8--x-8--x---------|
E|-------------------------------------|

Guitar II
   C         A       F         G
e|--8-x--8-x-5-x-5-x-------------------| 
B|--8-x--8-x-5-x-5-x-10-x-10-x---------|
G|--9-x--8-x-6-x-6-x-10-x-10-x---------|
D|-10-x-10-x-7-x-7-x-10-x-10-x-5-7-5---|
A|-------------------8--x-8--x---------|
E|-------------------------------------|
   C         A       F         G
e|--8-x--8-x-5-x-5-x-------------------| 
B|--8-x--8-x-5-x-5-x-10-x-10-x---------|
G|--9-x--8-x-6-x-6-x-10-x-10-x---------|
D|-10-x-10-x-7-x-7-x-10-x-10-x---------|
A|-------------------8--x-8--x-5-7-5---|
E|-----------------------------------7-|


Rit

Guitar I and II
   C5      E5     F5      G5            x4 
e|-------------------------------------|
B|-------------------------------------|
G|-5-5-5-5-9-9-9-9---------------------|
D|-5-5-5-5-9-9-9-9-3-3-3-3-5-5-5-5-----|
A|-3-3-3-3-7-7-7-7-3-3-3-3-5-5-5-5-----|
E|-----------------1-1-1-1-3-3-3-3-----|


Ending
 C5
|---|
|---|
|-5-|
|-5-|
|-3-|
|---|
Добавлено: 13.04.2012
Другие материалы по этой песне:
  • Аккорды и текст

Страница создана 13.04.2012
http://primanota.ru/punkreas/il-vicino-chords.htm
Привет, Гость.
Предлагаем пройти революционный курс по гитаре.
Подарок от PrimaNota.Ru, забирай!