PrimaNota.ru - самый крупный в мире бесплатный архив песенных текстов, аккордов, табулатур и нот


Punkreas - Il Mercato Del Niente - таба, видео

Регистрация Запомнить меня
Войти через:  Facebook Google Twitter Vk Yandex Mail.ru

Punkreas - Il Mercato Del Niente - таба, видео

Печатать
Просмотров: 59
		   --------


Il mercato del niente - Elettrodimestico

Intro

 ------------------------------------------------
 ------------------------------------------------
 -----------10-10-10-10--9-9-9-9--7-7-7-7--------
 --7-7-7-7--10-10-10-10--9-9-9-9--7-7-7-7--------
 --7-7-7-7---8--8--8--8--7-7-7-7--5-5-5-5--------
 --5-5-5-5---------------------------------------

Intro parte 2

 ------------------------------------------------
 ------------------------------------------------
 -----------------------------7-7-7-7------------
 --7-7-7-7--7-7-7-7--5-5-5-5--7-7-7-7------------  chitarra
 --7-7-7-7--7-7-7-7--5-5-5-5--5-5-5-5------------
 --5-5-5-5--5-5-5-5--3-3-3-3---------------------

 ------------------------------------------------
 ------------------------------------------------  basso
 -----------8-8-8-8--7-7-7-7--5-5-5-5------------
 --5-5-5-5---------------------------------------

Intro parte 3

                              ???????
 -----------------------------5-5-5-5------------
 -----------------------------7-7-7-7------------
 -----------------------------7-7-7-7------------
 --7-7-7-7--7-7-7-7--5-5-5-5---------------------  chitarra
 --7-7-7-7--7-7-7-7--5-5-5-5---------------------
 --5-5-5-5--5-5-5-5--3-3-3-3---------------------

 ------------------------------------------------
 ------------------------------------------------  basso
 -----------8-8-8-8--7-7-7-7--5-5-5-5------------
 --5-5-5-5---------------------------------------


Strofa


 ------------------------------------------------
 ------------------------------------------------
 -----------10-10-10-10--9-9-9-9--7-7-7-7--------
 --7-7-7-7--10-10-10-10--9-9-9-9--7-7-7-7--------  chitarra
 --7-7-7-7---8--8--8--8--7-7-7-7--5-5-5-5--------
 --5-5-5-5---------------------------------------

 ------------------------------------------------
 ------------------------------------------------  basso
 ------------8-8-8-8-----7-7-7-7--5-5-5-5--------
 --5-5-5-5---------------------------------------

le strade del mondo...


Strofa parte 2


 ------------------------------------------------
 ------------------------------------------------
 -----------10-10-10-10--9-9-9-9--7-9-9-9--------
 --7-7-7-7--10-10-10-10--9-9-9-9--7-9-9-9--------  chitarra
 --7-7-7-7---8--8--8--8--7-7-7-7--5-7-7-7--------
 --5-5-5-5---------------------------------------

 ------------------------------------------------
 ------------------------------------------------  basso
 ------------8-8-8-8-----7-7-7-7--5-7-7-7--------
 --5-5-5-5---------------------------------------

 se vuoi c'è il mercante di s.patrignano...

Rit


 ------------------------------------------------
 ------------------------------------------------
 -----------10-10-10-10--------------------------
 --7-7-7-7--10-10-10-10--2-2-2-2--2-2-2-2--------  chitarra
 --7-7-7-7---8--8--8--8--2-2-2-2--2-2-2-2--------
 --5-5-5-5---------------0-0-0-0--0-0-0-0--------

 ------------------------------------------------
 ------------------------------------------------  basso
 ------------8-8-8-8-----------------------------
 --5-5-5-5---------------0-0-0-0--0-0-0-0--------


  mille grazie alla gente...


l'ultima parte del ritornello è così

 ------------------------------------------------
 ------------------------------------------------
 -----------10-10-10-10--9-9-9-9--9-9-9-9--------
 --7-7-7-7--10-10-10-10--9-9-9-9--9-9-9-9--------  chitarra
 --7-7-7-7---8--8--8--8--7-7-7-7--7-7-7-7--------
 --5-5-5-5---------------------------------------

 ------------------------------------------------
 ------------------------------------------------  basso
 ------------8-8-8-8-----7-7-7-7--7-7-7-7--------
 --5-5-5-5---------------------------------------

   ...da chi da dietro si diverte...


parte dopo il ritornello...



 ------------------------------------------------
 ------------------------------------------------
 --7-9-9-9--7-9-9-9--7-9-9-9--7-7-7-6-5----------
 --7-9-9-9--7-9-9-9--7-9-9-9--7-7-7-6-5----------  chitarra
 --5-7-7-7--5-7-7-7--5-7-7-7--5-5-5-4-3----------
 ------------------------------------------------

 ------------------------------------------------
 ------------------------------------------------  basso
 -----------8-8-8-8--7-7-7-7--5-5-5-5------------
 --5-5-5-5---------------------------------------







     
Добавлено: 26.06.2013
Другие материалы по этой песне:
  • Аккорды и текст

Страница создана 26.06.2013
http://primanota.ru/punkreas/il-mercato-del-niente-chords.htm
Привет, Гость.
Предлагаем пройти революционный курс по гитаре.
Подарок от PrimaNota.Ru, забирай!