PrimaNota.ru - самый крупный в мире бесплатный архив песенных текстов, аккордов, табулатур и нот


Punkreas - Fegato Centenario - таба, видео

Регистрация Запомнить меня
Войти через:  Facebook Google Twitter Vk Yandex Mail.ru

Punkreas - Fegato Centenario - таба, видео

Печатать
Просмотров: 84
PUNKREAS

FEGATO CENTENARIO - Isterico

 

IMPORTANTE: Per leggere correttamente questo tab bisogna aprirlo con il
Blocco note (Notepad)

ed utilizzare il carattere Courier New !!!

 

ACCORDATURA CHITARRA: Standard (MI LA RE SOL SI mi)

 

STROFE (Suono distorto):

 

Tutte due le chitarre:

 

e|-------------------------------------------|

B|-------------------------------------------|

G|-------------5-5-5-5-------------7-7-7-7---|

D|---7-7-7-7---5-5-5-5---5-5-5-5---7-7-7-7---|

A|---7-7-7-7---3-3-3-3---5-5-5-5---5-5-5-5---|

E|---5-5-5-5-------------3-3-3-3-------------|

     Io mi accascio...

 

 

RITORNELLO (Suono distorto):

 

Tutte due le chitarre:

 

e|------------------------------------------------|

B|------------------------------------------------|

G|------------------------------------------------|

D|---7-7-7-7-7--3-3-3-3-3--5-5-5-5-5--2-2-2-2-2---|

A|---7-7-7-7-7--3-3-3-3-3--5-5-5-5-5--2-2-2-2-2---|

E|---5-5-5-5-5--1-1-1-1-1--3-3-3-3-3--0-0-0-0-0---|

     Acqua   boario     fegato     centenario

 

INTERMEZZO:

 

  Chitarra 1

 

e|-------------------------------------------|

B|-------------------------------------------|

G|-------------5-5-5-5-------------7-7-7-7---|

D|---7-7-7-7---5-5-5-5---5-5-5-5---7-7-7-7---|

A|---7-7-7-7---3-3-3-3---5-5-5-5---5-5-5-5---|

E|---5-5-5-5-------------3-3-3-3-------------|

 |                                           |

 |                                           |

 |Contemporaneamente la chitarra 2 fa:       |

 |                                           |

 |                                           |

e|-------------------------------------------|

B|-------------------------------------------|

G|-------------------------------------------|

D|---------------2-3-5---------------4-5-7---|

A|-----4-5-7---3-----------2-3-5---5---------|

E|---5-------------------3-------------------|

 

 

 

OUTRO:

 

Tutte due le chitarre:

 

e|-------|

B|-------|

G|-------|

D|---7---|

A|---7---|

E|---5---|

 

SEQUENZA:

 

STROFE X 2 (Suonato come Intro)

STROFE X 4 (B inizia a cantare)

RITORNELLO X 2

INTERMEZZO X 2

STROFE X 4

RITORNELLO X 2

INTERMEZZO X 2 (Suonato più veloce)

RITORNELLO X 2

OUTRO X 1

 

 


TABBATO DA:

 

 

   GGGGGGG   IIIIIIIIII       AA       TTTTTTTTTT       AA        BBBBBB

 GGG            III         AAAAAA        TTT         AAAAAA      BB  
BBB

GG              III        AAA  AAA       TTT        AAA  AAA     BB   
BB

GG              III       AAA    AAA      TTT       AAA    AAA    BBBBBBB

GG     GGG      III       AAAAAAAAAA      TTT       AAAAAAAAAA    BB   
BBB

 GGG    GG      III       AAA    AAA      TTT       AAA    AAA    BB    
BB

   GGGGGGG   IIIIIIIIII   AAA    AAA      TTT       AAA    AAA   
BBBBBBBB


     
Добавлено: 28.10.2013
Другие материалы по этой песне:
  • Аккорды и текст

Страница создана 29.09.2013
http://primanota.ru/punkreas/fegato-centenario-chords.htm
Привет, Гость.
Предлагаем пройти революционный курс по гитаре.
Подарок от PrimaNota.Ru, забирай!