PrimaNota.ru - самый крупный в мире бесплатный архив песенных текстов, аккордов, табулатур и нот


Punkreas - Family Gay - таба, видео

Регистрация Запомнить меня
Войти через:  Facebook Google Twitter Vk Yandex Mail.ru

Punkreas - Family Gay - таба, видео

Печатать
Просмотров: 91
Family Gay   Punkreas
D# = E

Riff 1
----------3------------------|
------3-5-----5-5-5-3-3-5-3--|
--5-5------------------------|
-----------------------------|
-----------------------------|
-----------------------------|

Riff 2
----------3---5-5-5-3-3------|
------3-5---------------5-3--|
--5-5------------------------|
-----------------------------|
-----------------------------|
-----------------------------|

Verse = Giro 1 + Giro 2  x2
Chorus = Giro 2 + Giro 1  x2

Giro 1  C  C  A  G
Giro 2  C  C  E  D

Bridge 1 giro 1  D  F  C  G
Bridge 1 giro 2  D  F  G  G

Bridge 2 muto più
--------3---------3------------12-----------|
----3-5-------3-5-----------------13-15-12--|
--5---------5-------campanello--------------|
--------------------------------------------|
--------------------------------------------|
--------------------------------------------|

Canzone
Intro
Verse
Chorus
Verse
Chorus Bridge
Bridge 2
Chorus x2

Da quando sono solo
Mi hanno rinchiuso dentro qua
Un gelido edificio per chi famiglia non ne ha
Ma come ogni bambino vorrei la cameretta,
Due giochi, un bel trenino,
Forse una bicicletta

un giorno me ne andrò da qua
e nella mia valigia
solo un ricordo resterà
di questa stanza grigia

E dopo molte sere
Passate a dir preghiere
Arriva il grande giorno
Qualcuno che mi adotterà
La direttrice attende
La coppia che mi salverà
Di mamme non ne vedo
Però ci sono due papà

io me ne vado via da qua
preparo la valigia
solo un ricordo resterà
di questa stanza grigia

Ma all'improvviso che grande delusione
Non è prevista questa combinazione
La suora mi bisbiglia “che orribile peccato
Torna a pregare, sarai più fortunato”

Anche per oggi resto qua
disfando la valigia
e quello che mi resterà
è questa stanza grigia
anche per oggi resto qua
ma nella mia preghiera
in croce al posto di Gesù
ci metterò la suora
Добавлено: 03.07.2012
Другие материалы по этой песне:
  • Аккорды и текст

Страница создана 03.07.2012
http://primanota.ru/punkreas/family-gay-chords.htm
Привет, Гость.
Предлагаем пройти революционный курс по гитаре.
Подарок от PrimaNota.Ru, забирай!