PrimaNota.ru - самый крупный в мире бесплатный архив песенных текстов, аккордов, табулатур и нот


Punkreas - Elettrosmog - таба, видео

Регистрация Запомнить меня
Войти через:  Facebook Google Twitter Vk Yandex Mail.ru

Punkreas - Elettrosmog - таба, видео

Печатать
Просмотров: 72
PUNKREAS

ELETTROSMOG - Falso

 

IMPORTANTE: Per leggere correttamente questo tab bisogna aprirlo con il
Blocco note (Notepad)

ed utilizzare il carattere Courier New !!!

 

ACCORDATURA CHITARRA: Standard (MI LA RE SOL SI mi)

 

Legenda:

 

X Stoppare le corde (ma non dare la pennata sulle corde stoppate!!!)

~ Vibrato

P.M|.......| Palm mute

/ slide

H Hammer on

b Bending and relase di un tono

 

INTRO (Suono distorto):

 

  Tutte due le chitarre:

 

e|------------------------------------------------------------|

B|------------------------------------------------------------|

G|---7-7-7---------7-7-7---------7-7-7---------5-5-5----------|

D|---7-7-7--7-7-7--7-7-7--7-X-7--7-7-7--7-7-7--5-5-5--5--5----|

A|---5-5-5--7-7-7--5-5-5--7-X-7--5-5-5--7-7-7--3-3-3--5--5----|

E|----------5-5-5---------5-X-5---------5-5-5---------3--3----|

 

 

STROFA 1(Suono distorto):

 

  Chitarra 1:

 

e|--------7-8-------10-9----|

B|---9-10------10-9---------|

G|--------------------------|

D|--------------------------|

A|--------------------------|

E|--------------------------|

 |                          |

 |                          |

 |Contemporaneamente la chitarra 2 fa:       

 |                          |

 |                          |

e|--------------------------|

B|--------------------------|

G|----------------555-------|

D|----77777777777-555--57---|

A|----77777777777-333--57---|

E|----55555555555------35---|

P.M|......................|

 

STROFA 2(Suono distorto):

 

 

  Tutte due le chitarre:

 

e|---------------------------------------------------------|

B|---------------------------------------------------------|

G|---------------------------------------------5-5---------|

D|---7-7-7-7-7-7-7---7-7-7-7-7-7-7---7-7-7-7-7-5-5-5-7-----|

A|---7-7-7-7-7-7-7---7-7-7-7-7-7-7---7-7-7-7-7-3-3-5-7-----|

E|---5-5-5-5-5-5-5---5-5-5-5-5-5-5---5-5-5-5-5-----3-5-----|

 P.M|.........|  P.M|.........|  P.M|.........|

 

RITORNELLO(Suono distorto):

 

  Chitarra 1:

 

e|------------------------------------------------------------|

B|------------------------------------------------------------|

G|---7-7-7---------7-7-7---------7-7-7---------5-5-5----------|

D|---7-7-7--7-7-7--7-7-7--7-X-7--7-7-7--7-7-7--5-5-5--5--5----|

A|---5-5-5--7-7-7--5-5-5--7-X-7--5-5-5--7-7-7--3-3-3--5--5----|

E|----------5-5-5---------5-X-5---------5-5-5---------3--3----|

 |                                                            |

 |                                                            | 
                                

 |Contemporaneamente la chitarra 2 fa:                        |

 |                                                            |

 |                                                            |

e|------------------------------------------------------------|

B|---7/9-------7------------------7/9----7--------------------|

G|---------------------5-7--------------------5X-5X-5X-5/7----|

D|------------------------------------------------------------|

A|------------------------------------------------------------|

E|------------------------------------------------------------|

 

  Chitarra 1:

 

e|------------------------------------------------------------|

B|------------------------------------------------------------|

G|---7-7-7---------7-7-7---------7-7-7---------5-5-5----------|

D|---7-7-7--7-7-7--7-7-7--7-X-7--7-7-7--7-7-7--5-5-5--5--5----|

A|---5-5-5--7-7-7--5-5-5--7-X-7--5-5-5--7-7-7--3-3-3--5--5----|

E|----------5-5-5---------5-X-5---------5-5-5---------3--3----|

 |                                                            | 
                            
                                                                 

 |                                                            |

 |Contemporaneamente la chitarra 2 fa:                        |

 |                                                            |

 |                                                            | 

e|------------------------------------------------------------|

B|---7/9-------7--------------------7/9---7-------------------|

G|---------------------5-7-------------------9H10-9H10-9H10---|

D|------------------------------------------------------------|

A|------------------------------------------------------------|

E|------------------------------------------------------------|

 

STROFA 3(Suono distorto):

 

  Tutte due le chitarre:

 

e|-----------------------------|

B|-----------------------------|

G|--7-7---------5-5-5----------|

D|--7-7--5-5-5--5-5-5--5-5-5---|

A|--5-5--5-5-5--3-3-3--5-5-5---|

E|-------3-3-3---------3-3-3---|

 

 

STROFA 4(Suono distorto):

 

  Tutte due le chitarre:

 

e|-----------------------------------------|

B|-----------------------------------------|

G|---7-7-7------------------X3-X3--X5-X5---|

D|---7-7-7--7-7-7--3-3-3-3--X3-X3--X5-X5---|

A|---5-5-5--7-7-7--3-3-3-3--X1-X1--X3-X3---|

E|----------5-5-5--1-1-1-1-----------------|

 

STROFA 5(Suono distorto):

 

  Tutte due le chitarre:

 

e|-------------------------------------------|

B|-------------------------------------------|

G|---7-7-7------------------333333--555555---|

D|---7-7-7--7-7-7--3-3-3-3--333333--555555---|

A|---5-5-5--7-7-7--3-3-3-3--111111--333333---|

E|----------5-5-5--1-1-1-1-------------------|

 

SOLO(Suono distorto)(non completo):

 

e|--------------------------------------------------------17-15-14-15-14-12-14-
2-----------|

B|-----------------------------------------------------------------------------
--15b(17)---|

G|---------------------------------------------9-10-12-14----------------------
------------|

D|----------9-10--7-6-------------9-10--11-12----------------------------------
------------|

A|---/11-12-----------8-7--/11-12----------------------------------------------
------------|

E|-----------------------------------------------------------------------------
------------|

 

 

OUTRO(Suono distorto):

 

e|-------------------|

B|-------------------|

G|---7-----------7---|

D|---7-7-7-7-7-5-7---|

A|---5-7-7-7-7-5-5---|

E|-----5-5-5-5-3-----|

 

SEQUENZA:   N° DI RIPETIZIONI:

 

INTRO       X 2

STROFA 1    X 2

STROFA 2    X 2

RITORNELLO X 1

STROFA 1    X 2

STROFA 2    X 2

STROFA 3    X 5

STROFA 4    X 3

STROFA 5    X 1

RITORNELLO X 1

SOLO        X 1

STROFA 4    X 3

STROFA 5    X 1

STROFA 5    X 4

OUTRO             X 1

 

 

 

TABBATO DA:

 

 

   GGGGGGG   IIIIIIIIII       AA       TTTTTTTTTT       AA        BBBBBB

 GGG            III         AAAAAA        TTT         AAAAAA      BB  
BBB

GG              III        AAA  AAA       TTT        AAA  AAA     BB   
BB

GG              III       AAA    AAA      TTT       AAA    AAA    BBBBBBB

GG     GGG      III       AAAAAAAAAA      TTT       AAAAAAAAAA    BB   
BBB

 GGG    GG      III       AAA    AAA      TTT       AAA    AAA    BB    
BB

   GGGGGGG   IIIIIIIIII   AAA    AAA      TTT       AAA    AAA   
BBBBBBBB


     
Добавлено: 31.07.2013
Другие материалы по этой песне:
  • Аккорды и текст

Страница создана 31.07.2013
http://primanota.ru/punkreas/elettrosmog-chords.htm
Привет, Гость.
Предлагаем пройти революционный курс по гитаре.
Подарок от PrimaNota.Ru, забирай!