PrimaNota.ru - самый крупный в мире бесплатный архив песенных текстов, аккордов, табулатур и нот


Punkreas - Dividi E Comanda - текст песни, таба, видео

Регистрация Запомнить меня
Войти через:  Facebook Google Twitter Vk Yandex Mail.ru

Punkreas - Dividi E Comanda - текст песни, таба, видео

Печатать
Просмотров: 100
Punkreas - Dividi e comanda - Falso
Gtr 1-2

h = hammer on
x = palm muted

***Intro
|--------------------|
|--------------------|
|--------------------|
|--9--9--------------|
|--9--9---7-7h8-7p5--|
|--7--7--------------|		
                                  this part x3
|--------|--------------|---------|----------------------------||
|--------|--------------|---------|----------------------------||
|--------|--------------|---------|-------7--------------------||
|--9--9--|------------7-|--10--8--|-9--9--7--------------------||
|--9--9--|--7-7h8-7p5---|--10--8--|-9--9-----7-7h8-7p5---------||
|--7--7--|--------------|--8---6--|-7--7-----------------------||

|------------------------||
|------------------------||
|--------7---------------||
|--9--9--7------------7--||
|--9--9-----7-7h8-7p5----||
|--7--7------------------||

***Verse ("la prima volta è la tragedia...")
|--------------------------|---------||
|--------------------------|---------||
|--------------------------|---------||
|--9--9--------------9--9--|--10--8--||
|--9--9--0--0--7--0--9--9--|--10--8--||
|--7--7--------------7--7--|--8---6--||

"l'uomo più ricco del mondo parlando alla tele..."
|-----------------------||
|-----------------------||
|-----------------------||
|--9-9-9-9-9-9-9-9------||
|--9-9-9-9-9-9-9-9------||
|--7-7-7-7-7-7-7-7------||
   x x x x x x x x

|-------------------------------------------------------------------||
|-------------------------------------------------------------------||
|-------------------------------------------------------------------||
|--9-9-9-9-9-9-9-9--7--9--7--9--9-9-9-9-9-9-9-9---------------------||
|--9-9-9-9-9-9-9-9--7--9--7--9--9-9-9-9-9-9-9-9--0--0--7--0---------||
|--7-7-7-7-7-7-7-7--5--7--5--7--7-7-7-7-7-7-7-7---------------------||
   x x x x x x x                x x x x x x x

|---------------------------||
|---------------------------||
|---------------------------||
|--9-9-9-9-9-9-9-9---10--8--||
|--9-9-9-9-9-9-9-9---10--8--||
|--7-7-7-7-7-7-7-7---8---6--||
   x x x x x x x x

"ha detto ci sono soggetti che non sono adatti..."
|-------------------------||
|-------------------------||
|-------------------------||
|--9-9-9-9-9-9-9----------||
|--9-9-9-9-9-9-9-------7--||
|--7-7-7-7-7-7-7--0--7----||
   x   x   x   x

***Chorus ("e si masturba...")
|-------------------------||
|-------------------------||
|----------------------7--||
|------------7*--9--9--7--|| 
|--7-7h8-7p5-----9--9-----||
|----------------7--7-----||

***Interlude ("adesso, succede adesso")
|----------------------------||
|----------------------------||
|--------7-------------------||
|--9--7--7----9--7-----------||
|--9--7--5----9--7-----5-6---||
|--7--5-------7--5--0--5-6---||

***Verse ("dividi e comanda - funziona anche in età digitale...")
|--------------------------|---------||
|--------------------------|---------||
|--------------------------|---------||
|--9--9--------------9--9--|--10--8--||
|--9--9--0--0--7--0--9--9--|--10--8--||
|--7--7--------------7--7--|--8---6--||

"favorire il consumo privato - è l'angoscia che prende alla gola..."
|-------------------------------||
|-------------------------------||
|-------------------------------||
|--9-9-9-9-9-9-9-9--------------||
|--9-9-9-9-9-9-9-9--0--0--7--0--||
|--7-7-7-7-7-7-7-7--------------||
   x x x x x x x x

|-------------------|-------------------------------||
|-------------------|-------------------------------||
|-------------------|-------------------------------||
|--9-9-9-9-9-9-9-9--|--9-9-9-9-9-9-9-9--------------||
|--9-9-9-9-9-9-9-9--|--9-9-9-9-9-9-9-9--0--0--7--0--||
|--7-7-7-7-7-7-7-7--|--7-7-7-7-7-7-7-7--------------||
   x x x x x x x      x x x x x x x x

|---------------------------||
|---------------------------||
|---------------------------||
|--9-9-9-9-9-9-9-9---10--8--||
|--9-9-9-9-9-9-9-9---10--8--||
|--7-7-7-7-7-7-7-7---8---6--||
   x x x x x x x x

"agli amici in ospedali..."
|-------------------------||
|-------------------------||
|-------------------------|| non sicura al 100%
|--9-9-9-9-9-9-9----------||
|--9-9-9-9-9-9-9-------7--||
|--7-7-7-7-7-7-7--0--7----||
   x   x   x   x

***Chorus ("e si masturba...")
|-------------------------||
|-------------------------||
|----------------------7--||
|------------7*--9--9--7--|| 
|--7-7h8-7p5-----9--9-----||
|----------------7--7-----||

***Interlude ("adesso, succede adesso")
|----------------------------||
|----------------------------||
|--------7-------------------||
|--9--7--7----9--7-----------||
|--9--7--5----9--7-----5-6---||
|--7--5-------7--5--0--5-6---||

***Interlude II 2:11
|----------------------------------||
|----------------------------------|| 
|----------------------------------||
|--7--7--7--7---5---7--7--7--7-----|| 
|--7--7--7--7---5---7--7--7--7-----|| 
|--7--7--7--7---5---7--7--7--7-----||

***Repeat Verso ("l'uomo più ricco del mondo...")
and the part "agli amici in ospedali..."

"...a te lascio lapidare criminali virtuali"
|------------------------||
|------------------------||
|------------------------||
|--9-9-9-----------------||
|--9-9-9--7h8--7-7h8-5---||
|--7-7-7-----------------||

***Repeat Chorus x2
     
Добавлено: 29.09.2013
Другие материалы по этой песне:

Страница создана 15.04.2012
http://primanota.ru/punkreas/dividi-e-comanda-chords.htm
Привет, Гость.
Предлагаем пройти революционный курс по гитаре.
Подарок от PrimaNota.Ru, забирай!